Oops, an error
Loading. Please wait.
We have an official Hotel California tab made by UG professional guitarists. Check out the tab »
×

Hotel California Live tab

version 15
version 15

Whole song

Video

by Eagles
11,332 views 195 this week
no commentswrite comment
1 2 3 4 5
x 3
add to favorites
×
Save as Personal and add changes to this tab that will be seen only by you. Learn more ›
×
You can save this tab as Personal to edit and correct it or add notes. All changes will be seen only by you. Learn more »
launch autoscroll
font size
0
reset
how to read this tab
guitar tuner
backing track
0:00
0:00
edit
Autoscroll
slow
fast
+/-
esc
set tempo
stop
Author
Difficulty
                          Hotel California (live)

                         from the Eagles LIVE! album


FINALLY! This is how it is REALLY played. All those transcriptions in the magazine are 
shady at best. Granted, they are for the studio version, but how many

bands have 7 or 8 guitarists to do it right? Likely, none. This is how they play it live 
with three guitars (Frey, Felder & Walsh) and it sounds stellar. I stand

behind this transcription as far as far accuracy at about 90%. You have never found one 
like this, trust me. I can't believe it took this long for anyone to do a

proper transcription of it.


A few notes on the transcription:

1. Glen Frey always played this with a capo on the second fret so I transcribed it that 
way (I have no idea why as it isn't that hard to play without a capo but

that's Glen's secret). I transcribed the CAPO'd chord along with the actual concert 
pitch sounding chord. For example;

[Bmin (Amin shape w/capo)]

means that the concert pitch is a Bminor chord but Glen plays it with a capo on the 
second fret so it will look like an A minor chord shape when looking at the

fretboard. You can just as easily play it by following only the concert pitch chords on 
the left.


2. I transcribed Don Felders part twice. Once on the 12 string neck the same way as 
Glens so all the "0's" in the tablature are actually on the 7th fret where

the capo is located. For example;
All the below "0" numbers are actually played as open strings sounded on the 7th fret 
which is where the capo is. The "2's" are fingered on the 9th fret. You

should get the picture from here.

--0------0------0------------|
--0--------0---------0----0--|
--0----0---------------0--2--|
--2-----------2----2---------|
--2--2-----------------------|
--0--------------------------|

3. I also transcribed Felders part later in this document as played at the actual fret. 
So when you see a 7, it is actually at the seventh fret and sounded by

virtue of the capo being there. Further, a "9" means ninth fret and "11" means eleventh 
fret and so on.

4. I trancribed both Felders 12 string guitar and 6 string neck (for the leads) on the 
same staff because that is how he does it live. You can't play both necks

at the same time.


So hopefully this clears everything up and Without further ado, here is Hotel California:


----------------------------------------
Guitar 1 (Glenn Frey) Acoustic (Capo 2)

Capo played on the second fret.
First chord listed is the actual chord tonality.
The 2nd chord is the chord SHAPE played with capo



             W                                  W
E||-------|----------------------------------|-------------------|
B||-------|----------------------------------|-------------------|
G||-------|----------------------------------|-------------------|
D||-------|----------------------------------|-------------------|
A||-------|----------------------------------|-------------------|
E||-------|----------------------------------|-------------------|


    14 bars - no playing (or you can strum chords to fill in)
 |-------------------------------------------------------------|
 |-------------------------------------------------------------|
 |-------------------------------------------------------------|
 |-------------------------------------------------------------|
 |-------------------------------------------------------------|
 |-------------------------------------------------------------|




VERSE 1 & 2 (play twice):

  Bmin (Amin shape w/capo)      F#maj (Emaj shape w/capo)
  E  S S E  S S E  S S E  E     E  S S E  S S E  S S E  E
--0--0-0-0--0-0-0--0-0-0--0--|--0--0-0-0--0-0-0--0-0-0--0--|
--1--1-1-1--1-1-1--1-1-1--1--|--0--0-0-0--0-0-0--0-0-0--0--|
--2--2-2-2--2-2-2--2-2-2--2--|--1--1-1-1--1-1-1--1-1-1--1--|
--2--2-2-2--2-2-2--2-2-2--2--|--2--2-2-2--2-2-2--2-2-2--2--|
--0--0-0-0--0-0-0--0-0-0--0--|--2--2-2-2--2-2-2--2-2-2--2--|
-----------------------------|--0--0-0-0--0-0-0--0-0-0--0--|




  Amaj (Gmaj shape w/capo)      Emaj (Dmaj shape w/capo)
  E  S S E  S S E  S S E  E     E  S S E  S S E  S S E  E
--3--3-3-3--3-3-3--3-3-3--3--|--2--2-2-2--2-2-2--2-2-2--2--|
--3--3-3-3--3-3-3--3-3-3--3--|--3--3-3-3--3-3-3--3-3-3--3--|
--0--0-0-0--0-0-0--0-0-0--0--|--2--2-2-2--2-2-2--2-2-2--2--|
--0--0-0-0--0-0-0--0-0-0--0--|--0--0-0-0--0-0-0--0-0-0--0--|
--2--2-2-2--2-2-2--2-2-2--2--|-----------------------------|
--3--3-3-3--3-3-3--3-3-3--3--|-----------------------------|





  G maj (F maj shape w/capo)    D maj (Cmaj shape w/capo)
  E  S S E  S S E  S S E  E     E  S S E  S S E  S S E  E
--1--1-1-1--1-1-1--1-1-1--1--|-----------------------------|
--1--1-1-1--1-1-1--1-1-1--1--|--1--1-1-1--1-1-1--1-1-1--1--|
--2--2-2-2--2-2-2--2-2-2--2--|--0--0-0-0--0-0-0--0-0-0--0--|
--3--3-3-3--3-3-3--3-3-3--3--|--2--2-2-2--2-2-2--2-2-2--2--|
--3--3-3-3--3-3-3--3-3-3--3--|--3--3-3-3--3-3-3--3-3-3--3--|
-----------------------------|-----------------------------|




  Emin (Dmin shape w/capo)      F#maj (Emaj shape w/capo)
  E  S S E  S S E  S S E  E     E  S S E  S S E  S S E  E
--1--1-1-1--1-1-1--1-1-1--1--|--0--0-0-0--0-0-0--0-0-0--0--|
--3--3-3-3--3-3-3--3-3-3--3--|--0--0-0-0--0-0-0--0-0-0--0--|
--2--2-2-2--2-2-2--2-2-2--2--|--1--1-1-1--1-1-1--1-1-1--1--|
--0--0-0-0--0-0-0--0-0-0--0--|--2--2-2-2--2-2-2--2-2-2--2--|
-----------------------------|--2--2-2-2--2-2-2--2-2-2--2--|
-----------------------------|--0--0-0-0--0-0-0--0-0-0--0--|




  Bmin (Amin shape w/capo)     F#maj (Emaj shape w/capo)
  E  S S E  S S E  S S E  E     E  S S E  S S E  S S E  E
--0--0-0-0--0-0-0--0-0-0--0--|--0--0-0-0--0-0-0--0-0-0--0--|
--1--1-1-1--1-1-1--1-1-1--1--|--0--0-0-0--0-0-0--0-0-0--0--|
--2--2-2-2--2-2-2--2-2-2--2--|--1--1-1-1--1-1-1--1-1-1--1--|
--2--2-2-2--2-2-2--2-2-2--2--|--2--2-2-2--2-2-2--2-2-2--2--|
--0--0-0-0--0-0-0--0-0-0--0--|--2--2-2-2--2-2-2--2-2-2--2--|
-----------------------------|--0--0-0-0--0-0-0--0-0-0--0--|







CHORUS (play once)


  G maj (F maj shape w/capo)   D maj (Cmaj shape w/capo)
  E  S S E  S S E  S S E  E     S S E  S S E  S S E  E
--1--1-1-1--1-1-1--1-1-1--1--|-----------------------------|
--1--1-1-1--1-1-1--1-1-1--1--|--1--1-1-1--1-1-1--1-1-1--1--|
--2--2-2-2--2-2-2--2-2-2--2--|--1--1-1-1--1-1-1--1-1-1--1--|
--3--3-3-3--3-3-3--3-3-3--3--|--2--2-2-2--2-2-2--2-2-2--2--|
--3--3-3-3--3-3-3--3-3-3--3--|--3--3-3-3--3-3-3--3-3-3--3--|
-----------------------------|-----------------------------|





  Emin (Dmin shape w/capo)      Bmin (Amin shape w/capo)
  E  S S E  S S E  S S E  E     E  S S E  S S E  S S E  E
--1--1-1-1--1-1-1--1-1-1--1--|-----------------------------|
--3--3-3-3--3-3-3--3-3-3--3--|--1--1-1-1--1-1-1--1-1-1--1--|
--2--2-2-2--2-2-2--2-2-2--2--|--2--2-2-2--2-2-2--2-2-2--2--|
--0--0-0-0--0-0-0--0-0-0--0--|--2--2-2-2--2-2-2--2-2-2--2--|
-----------------------------|--0--0-0-0--0-0-0--0-0-0--0--|
-----------------------------|-----------------------------|




  G maj (F maj shape w/capo)   D maj (Cmaj shape w/capo)
  E  S S E  S S E  S S E  E     E  S S E  S S E  S S E  E
--1--1-1-1--1-1-1--1-1-1--1--|-----------------------------|
--1--1-1-1--1-1-1--1-1-1--1--|--1--1-1-1--1-1-1--1-1-1--1--|
--2--2-2-2--2-2-2--2-2-2--2--|--0--0-0-0--0-0-0--0-0-0--0--|
--3--3-3-3--3-3-3--3-3-3--3--|--2--2-2-2--2-2-2--2-2-2--2--|
--3--3-3-3--3-3-3--3-3-3--3--|--3--3-3-3--3-3-3--3-3-3--3--|
-----------------------------|-----------------------------|




  Emin (Fmaj shape w/capo)      F#maj (Emaj shape w/capo)
  E  S S E  S S E  S S E  E     E  S S E  S S E  S S E  E
--1--1-1-1--1-1-1--1-1-1--1--|-----------------------------|
--3--3-3-3--3-3-3--3-3-3--3--|--0--0-0-0--0-0-0--0-0-0--0--|
--2--2-2-2--2-2-2--2-2-2--2--|--1--1-1-1--1-1-1--1-1-1--1--|
--0--0-0-0--0-0-0--0-0-0--0--|--2--2-2-2--2-2-2--2-2-2--2--|
-----------------------------|--2--2-2-2--2-2-2--2-2-2--2--|
-----------------------------|--0--0-0-0--0-0-0--0-0-0--0--|



REPEAT VERSE TWICE

REPEAT FIRST 7 BARS OF CHORUS ONCE


This is the 8th bar of the chorus:



  F#maj (Emaj shape w/capo)
  H                         Q    Q
--------------------------------------|
--0-----------------------------------|
--1-----------------------------------|
--2-----------------------------------|
--2-----------------------------------|
--0-----------------------------------|



THE FIFTH VERSE SHOULD BE A TACIT (NO PLAYING) just like the intro (or you can try to 
fill in the chords to double Felders part).


REPEAT VERSE ONE AGAIN.

REPEAT THE VERSE SECTION THREE TIMES UNDER THE SOLO USING THE SAME STRUMMING PATTERN

THE OUTRO CODA USES THE SAME CHORD PROGRESSION BUT A DIFFERENT STRUMMING PATTERN AS 
SHOWN BELOW:





  Bmin (Amin shape w/capo)
  S S S S S S S S S S S S E  E
--0-0-0-0-0-0-0-0-0-0-0-0-0--0--|
--1-1-1-1-1-1-1-1-1-1-1-1-1--1--|
--2-2-2-2-2-2-2-2-2-2-2-2-2--2--|
--2-2-2-2-2-2-2-2-2-2-2-2-2--2--|
--0-0-0-0-0-0-0-0-0-0-0-0-0--0--|
--------------------------------|


REPEAT THE ABOVE STRUMING PATTERN WITH THE FOLLOWING CHORDS:

  F#maj (Emaj shape w/capo)
  Amaj (Gmaj shape w/capo)
  Emaj (Dmaj shape w/capo)
  G maj (F maj shape w/capo)
  D maj (Cmaj shape w/capo)
  Emin (Dmin shape w/capo)
  F#maj (Emaj shape w/capo)
  Bmin (Amin shape w/capo)
  F#maj (Emaj shape w/capo)
  Amaj (Gmaj shape w/capo)
  Emaj (Dmaj shape w/capo)
  G maj (F maj shape w/capo)
  D maj (Cmaj shape w/capo)
  Emin (Dmin shape w/capo)
  F#maj (Emaj shape w/capo)


THIS IS THE LAST BAR:

  S S S S H.
--0-0-0-0--------------||
--1-1-0-1--------------||
--2-2-2-2--------------||
--2-2-2-2--------------||
--0-0-0-0--------------||
-----------------------||




=========================================================
=========================================================


12 string guitar (Felder) left channel - capo view (Capo 7th fret)

This is how the fretboard will look relative to the capo on the 7th fret. This is all 
done on a 12 string neck. All open notes are actually 7th fret notes. This

pattern is for the intro and verses 1 and five only.


   E  S S S E  S E  S S E  E
|--0------0------0------------|
|--0--------0---------0----0--|
|--0----0---------------0--2--|
|--2-----------2----2---------|
|--2--2-----------------------|
|--0--------------------------|


  E  S S S S S S Q    Q       E  S S S E  S E  S S E  S S
---------2-L---------------|-----------0------------------|
-------0-------0-4----0----|-------3-3----3------3------0-|
--2--2-------2--------2----|--2--2-------------2------2---|
--1------------------------|--0-------------0-------------|
---------------------------|-----------------------0------|
---------------------------|------------------------------|


  E  S S S S S S H           E  S S S S S E  E  S S  S E
-----0---0-------0--------|-----0---0-----0---------------|
-----------0--------------|--1--------1------1------------|
-------0-----0------------|--0----0-------------0------0--|
---------------2----------|--2----------2---------0h-2----|
--4-----------------------|-------------------------------|
--------------------------|-------------------------------|


  E  S S S E  S E  S S E  S S    E  S S S S S S E  S S E  S S
-----3-----3-------3----------|-----0---0-------0----0--------|
--0----3------0------0------0-|-----------1---1----1--------1-|
---------0----------------0---|-------0---------------------0-|
------------------------------|-------------2-------------2-2-|
----------------2-------------|--0----------------------------|
-----------------------3------|------------------------0------|


  E  S S S S S S H
-----------------2--------|
-------0---0--------------|
-------2-2-----2----------|
-----1-------1------------|
--2-----------------------|
--------------------------|



--------------------------------------------------

This is the same part as transcribed above except that it takes into account the actual 
frets being played (with the capo on 7th fret)

Again, this is only for the intro, verse 1 and verse 5.

             E                           S S S E  S E  S S E  E
E||-------|--7-------------------------------7------7------------|
B||-------|--7---------------------------------7---------7----7--|
G||-------|--7-----------------------------7---------------7--9--|
D||-------|--9------------------------------------9----9---------|
A||-------|--9---------------------------9-----------------------|
E||-------|--7---------------------------------------------------|


  E  S S S S S S  Q    Q       E  S  S  S E   S E  S  S E  S S
---------9-L----------------|-------------7--------------------|
-------7-------7-11----7----|-------10-10----10------10------7-|
--9--9-------9---------9----|--9--9----------------9-------9---|
--8-------------------------|--7----------------7--------------|
----------------------------|---------------------------7------|
----------------------------|----------------------------------|


   E  S S S S S S H           E  S S S S S E  E  S S  S E
------7---7-------7--------|-----7---7-----7---------------|
------------7--------------|--8--------8------8------------|
--------7-----7------------|--7----7-------------7------7--|
----------------9----------|--9----------9---------7h-9----|
--11-----------------------|-------------------------------|
---------------------------|-------------------------------|


  E   S  S S  E  S E   S S  E  S S    E  S S S S S S E  S S E  S S
-----10------10-------10-----------|-----7---7-------7----7--------|
--7-----10-------7-------7-------7-|-----------8---8----8--------8-|
-----------7-------------------7---|-------7---------------------7-|
-----------------------------------|-------------9-------------9-9-|
-------------------9---------------|--7----------------------------|
---------------------------10------|------------------------7------|


  E  S S S S S S H           E  S S S E  S E  S S E  E
-----------------9--------|--7------7------7------------|
-------7---7--------------|--7--------7---------7----7--|
-------9-9-----9----------|--7----7---------------7--9--|
-----8-------8------------|--9-----------9----9---------|
--9-----------------------|--9--9-----------------------|
--------------------------|--7--------------------------|



=========================================================
=========================================================



12 string guitar AND 6 string guitar (Felder) left channel - capo view (Capo 7th fret of 
12 string only)




             Start out on 12 string neck


E||-------|--7------7------7------------|
B||-------|--7--------7---------7----7--|
G||-------|--7----7---------------7--9--|
D||-------|--9-----------9----9---------|
A||-------|--9--9-----------------------|
E||-------|--7--------------------------|


  E  S S S S S S  Q    Q       E  S  S  S E   S E  S  S E  S S
---------9-L----------------|-------------7--------------------|
-------7-------7-11----7----|-------10-10----10------10------7-|
--9--9-------9---------9----|--9--9----------------9-------9---|
--8-------------------------|--7----------------7--------------|
----------------------------|---------------------------7------|
----------------------------|----------------------------------|


   E  S S S S S S H           E  S S S S S E  E  S S  S E
------7---7-------7--------|-----7---7-----7---------------|
------------7--------------|--8--------8------8------------|
--------7-----7------------|--7----7-------------7------7--|
----------------9----------|--9----------9---------7h-9----|
--11-----------------------|-------------------------------|
---------------------------|-------------------------------|


  E   S  S S  E  S E   S S  E  S S    E  S S S S S S E  S S E  S S
-----10------10-------10-----------|-----7---7-------7----7--------|
--7-----10-------7-------7-------7-|-----------8---8----8--------8-|
-----------7-------------------7---|-------7---------------------7-|
-----------------------------------|-------------9-------------9-9-|
-------------------9---------------|--7----------------------------|
---------------------------10------|------------------------7------|


  E  S S S S S S H           E  S S S E  S E  S S E  E
-----------------9--------|--7------7------7------------|
-------7---7--------------|--7--------7---------7----7--|
-------9-9-----9----------|--7----7---------------7--9--|
-----8-------8------------|--9-----------9----9---------|
--9-----------------------|--9--9-----------------------|
--------------------------|--7--------------------------|


  E  S S S S S S  Q    Q       E  S  S  S E   S E  S  S E  S S
---------9-L----------------|-------------7--------------------|
-------7-------7-11----7----|-------10-10----10------10------7-|
--9--9-------9---------9----|--9--9----------------9-------9---|
--8-------------------------|--7----------------7--------------|
----------------------------|---------------------------7------|
----------------------------|----------------------------------|


   E  S S S S S S H           E  S S S S S E  E  S S  S E
------7---7-------7--------|-----7---7-----7---------------|
------------7--------------|--8--------8------8------------|
--------7-----7------------|--7----7-------------7------7--|
----------------9----------|--9----------9---------7h-9----|
--11-----------------------|-------------------------------|
---------------------------|-------------------------------|


  E   S  S S  E  S E   S S  E  S S    E  S S S S S S E  S S E  S S
-----10------10-------10-----------|-----7---7-------7----7--------|
--7-----10-------7-------7-------7-|-----------8---8----8--------8-|
-----------7-------------------7---|-------7---------------------7-|
-----------------------------------|-------------9-------------9-9-|
-------------------9---------------|--7----------------------------|
---------------------------10------|------------------------7------|


  E  S S S S S S H           E  S S S S E  S S E  E   E
-----------------9--------|-------7----------7----7--12--|
-------7---7--------------|--7------7---7------7--7------|
-------9-9-----9----------|-----7------------------------|
-----8-------8------------|-----------9----9-------------|
--9-----------------------|------------------------------|
--------------------------|------------------------------|


   E  S S S S S S  H           E  S  S  S E   S E  S  S E  S S
--------9---9---------------|-------------7--------------------|
--11------------9-11--------|-------10-10----10------10------7-|
------9-------9-------------|-----9----------------9-------9---|
----------------------------|--7----------------7--------------|
----------9-----------------|---------------------------7------|
----------------------------|----------------------------------|


   E  S S S S S S H           E  S S E  S E  E  S S   S  E
------7---7-------7--------|--7----7------7-------------10--|
------------7--------------|--8------8-------8----8h-10-----|
--------7-----7------------|--------------------7-----------|
----------------9----------|-----9------9-------------------|
--11-----------------------|--------------------------------|
---------------------------|--------------------------------|


  E   S  S S  E  S E   S S  Q       E  S S S S S S E  S S E  E
-----10------10-------10---------|-----7---7-------7----7-------|
--7-----10-------7-------7-------|-----------8---8--------8-----|
-----------7---------------------|-------7-------------------7--|
---------------------------------|-------------9------9------9--|
-------------------9-------------|--7---------------------------|
---------------------------10----|------------------------------|


                             Switch to 6 string neck

  E  S S E  S  S H           H.            E  E
-------9------12-9--------|------------------------|
---------7----------------|------------------------|
------------9-------------|--7-------------9--9br--|
-----8--------------------|------------------------|
--9-----------------------|------------------------|
--------------------------|------------------------|


  H.           E  E       H.           Q         H.           Q
-----------------------|----------------------|--------------------|
-----------------------|----------------------|--------------------|
--6------------9--9br--|--6------------9br----|--------------------|
-----------------------|----------------------|--9-----------------|
-----------------------|----------------------|--------------------|
-----------------------|----------------------|--------------------|


  H.           E  E       H.           Q        H.           Q
-----------------------|--------------------|----------------------|
-----------------------|--------------------|----------------------|
---------------9--9br--|--------------------|----------------------|
--9--------------------|--7-----------------|----------------8b----|
-----------------------|---------------9----|--10------------------|
-----------------------|--------------------|----------------------|


  H        E  E  S S S S    Q    E  S S E  S S E  S S
-------------------------|----------------------------|
-------------------------|----------------------------|
-------------------------|----------x-x----x-x----x-x-|
--8--------L-------------|----------x-x----x-x----x-x-|
-------------------1-2-4-|--5-------x-x----x-x----x-x-|
-----------------2-------|----------------------------|


  E  S S E  S S E  S S E  S S    E  S S E  S S E  S S E  S S
------------------------------|------------------------------|
------------------------------|------------------------------|
-----x-x----x-x----x-x----x-x-|-----x-x----x-x----x-x----x-x-|
-----x-x----x-x----x-x----x-x-|-----x-x----x-x----x-x----x-x-|
-----x-x----x-x----x-x----x-x-|-----x-x----x-x----x-x----x-x-|
------------------------------|------------------------------|


  Q     Q     Q    E  E      E  S S E  S S E  S S E  S S
--------------------------|------------------------------|
--------------------------|------------------------------|
--------------------------|-----x-x----x-x----x-x----x-x-|
----------------------4\--|-----x-x----x-x----x-x----x-x-|
--2~----4~----5----7------|-----x-x----x-x----x-x----x-x-|
--------------------------|------------------------------|


  E  S S E  S S E  S S E  S S    E  S S E  S S E  S S E  S S
------------------------------|------------------------------|
------------------------------|------------------------------|
-----x-x----x-x----x-x----x-x-|-----x-x----x-x----x-x----x-x-|
-----x-x----x-x----x-x----x-x-|-----x-x----x-x----x-x----x-x-|
-----x-x----x-x----x-x----x-x-|-----x-x----x-x----x-x----x-x-|
------------------------------|------------------------------|


  E  S S E  S S E  S S Q
----------------------------|
----------------------------|
-----x-x----x-x----x-x------|
-----x-x----x-x----x-x------|
-----x-x----x-x----x-x------|
----------------------------|


  Switch to 12 string neck

  E  S S S E  S E  S S E  E
--7------7------7------------|
--7--------7---------7----7--|
--7----7---------------7--9--|
--9-----------9----9---------|
--9--9-----------------------|
--7--------------------------|


  E  S S S S S S  Q    Q       E  S  S  S E   S E  S  S E  S S
---------9-L----------------|-------------7--------------------|
-------7-------7-11----7----|-------10-10----10------10------7-|
--9--9-------9---------9----|--9--9----------------9-------9---|
--8-------------------------|--7----------------7--------------|
----------------------------|---------------------------7------|
----------------------------|----------------------------------|


   E  S S S S S S H           E  S S S S S E  E  S S  S E
------7---7-------7--------|-----7---7-----7---------------|
------------7--------------|--8--------8------8------------|
--------7-----7------------|--7----7-------------7------7--|
----------------9----------|--9----------9---------7h-9----|
--11-----------------------|-------------------------------|
---------------------------|-------------------------------|


  E   S  S S  E  S E   S S  E  S S    E  S S S S S S E  S S E  S S
-----10------10-------10-----------|-----7---7-------7----7--------|
--7-----10-------7-------7-------7-|-----------8---8----8--------8-|
-----------7-------------------7---|-------7---------------------7-|
-----------------------------------|-------------9-------------9-9-|
-------------------9---------------|--7----------------------------|
---------------------------10------|------------------------7------|


                             Switch to 6 string neck

  E  S S S S S S H           Q     E  S S  S  S  Q    S S
-----------------9--------|-------------9-10p-9-10--------|
-------7---7--------------|-------------------------------|
-------9-9-----9----------|--7-----L------------------x-x-|
-----8-------8------------|---------------------------x-x-|
--9-----------------------|---------------------------x-x-|
--------------------------|-------------------------------|


  Q    E  S S S  S Q    S S    Q    E  S S S  S Q    S S
------------8-9p-8-9--------|------------7-9p-7-9--------|
----------------------------|----------------------------|
--6----L----------------x-x-|--6----L----------------x-x-|
------------------------x-x-|------------------------x-x-|
------------------------x-x-|------------------------x-x-|
----------------------------|----------------------------|


  Q    E  S S S  S Q    S S    Q    E  S S S  S Q    S S
------------6-7p-6-7--------|------------5-7p-5-7--------|
----------------------------|----------------------------|
--4----L----------------x-x-|--4----L----------------x-x-|
------------------------x-x-|------------------------x-x-|
------------------------x-x-|------------------------x-x-|
----------------------------|----------------------------|


                                                   |--3--|
  Q    E  S S S  S Q    E     Q    E  S S S  S E.  S  S  S S
------------4-5p-4-5-------|-----------------------6h-7p-6---|
---------------------------|------------7-8p-7-8-----------9-|
--2----L-------------------|---------------------------------|
------------------------4--|--5----L-------------------------|
---------------------------|---------------------------------|
---------------------------|---------------------------------|


  H        E  E  S S S S    H.           Q
--6--------L-------------|--------------------|
-------------------------|--------------------|
-------------------------|--------------------|
-------------------------|--------------------|
-------------------1-2-4-|--5-----------------|
-----------------2-------|--------------------|


     |-3-|
  E  T T T  S E    S S E    S S E   E     H.           Q
-----------10-------------------9b--9--|--L-----------------|
---------x-----------------10----------|--------------------|
-------x------9br--7---9b--------------|--------------------|
---------------------7-----------------|--------------------|
---------------------------------------|--------------------|
---------------------------------------|--------------------|


  Q     Q     Q    E  E     E  S S E  S S E  S S E  S S
-------------------------|------------------------------|
-------------------------|------------------------------|
-------------------------|-----x-x----x-x----x-x----x-x-|
----------------------4--|-----x-x----x-x----x-x----x-x-|
--2~----4~----5----7-----|-----x-x----x-x----x-x----x-x-|
-------------------------|------------------------------|


  S  S  Q      S  S  E     S  S  E    E      W
-------17b----17-17----------------------|--------------------|
----15--------------17br--15----17b--17--|---L----------------|
-----------------------------16----------|--------------------|
-----------------------------------------|--------------------|
-----------------------------------------|--------------------|
-----------------------------------------|--------------------|


                      Switch to 12 string neck
  W                   E  S S S E  S E  S S E  E
-------------------|--7------7------7------------|
-------------------|--7--------7---------7----7--|
-------------------|--7----7---------------7--9--|
-------------------|--9-----------9----9---------|
-------------------|--9--9-----------------------|
-------------------|--7--------------------------|


  E  S S S S S S  Q    Q       E  S  S  S E   S E  S  S E  S S
---------9-L----------------|-------------7--------------------|
-------7-------7-11----7----|-------10-10----10------10------7-|
--9--9-------9---------9----|--9--9----------------9-------9---|
--8-------------------------|--7----------------7--------------|
----------------------------|---------------------------7------|
----------------------------|----------------------------------|


   E  S S S S S S H           E  S S S S S E  E  S S  S E
------7---7-------7--------|-----7---7-----7---------------|
------------7--------------|--8--------8------8------------|
--------7-----7------------|--7----7-------------7------7--|
----------------9----------|--9----------9---------7h-9----|
--11-----------------------|-------------------------------|
---------------------------|-------------------------------|


  E   S  S S  E  S E   S S  E  S S    E  S S S S S S E  S S E  S S
-----10------10-------10-----------|-----7---7-------7----7--------|
--7-----10-------7-------7-------7-|-----------8---8----8--------8-|
-----------7-------------------7---|-------7---------------------7-|
-----------------------------------|-------------9-------------9-9-|
-------------------9---------------|--7----------------------------|
---------------------------10------|------------------------7------|


                             Switch to 6 string neck
  E  S S S S S S H           Q        E  S S  S  S  E  E  E
-----------------9--------|----------------9-10p-9-10----------|
-------7---7--------------|------------------------------------|
-------9-9-----9----------|--7--------L----------------9--9br--|
-----8-------8------------|------------------------------------|
--9-----------------------|------------------------------------|
--------------------------|------------------------------------|


  Q    E  S S S  S E  E  E       Q    E  S S S  S E  Q
------------8-9p-8-9----------|------------7-9p-7-9---------|
------------------------------|-----------------------------|
--6----L--------------9--9br--|--6----L--------------9br----|
------------------------------|-----------------------------|
------------------------------|-----------------------------|
------------------------------|-----------------------------|


  Q    E  S S S  S Q    E     Q    E  S S S  S E  E  E
------------6-7p-6-7-------|------------5-7p-5-7---------|
---------------------------|----------------------5--5b--|
---------------------------|--4----L---------------------|
--9----L-------------------|-----------------------------|
---------------------------|-----------------------------|
---------------------------|-----------------------------|


                                                   |--3--|
  Q    E  S S S  S Q    E     Q    E  S S S  S E.  S  S  S S
------------4-5p-4-5-------|-----------------------6h-7p-6---|
---------------------------|------------7-8p-7-8-----------9-|
--2----L-------------------|---------------------------------|
------------------------4--|--5----L-------------------------|
---------------------------|---------------------------------|
---------------------------|---------------------------------|


  H        E.  S   E   S   S      Q.      S  S Q     S  S S S
--6---------------------------|-------------------------------|
----------------------10h-12b-|---L------10-12------------7---|
-----------------/11----------|----------------9~----7h-9---7-|
------------------------------|-------------------------------|
------------------------------|-------------------------------|
------------------------------|-------------------------------|


        |--3--|
  Q     S  S  S H          S. X X    S  S S S S  S E   S  S S S S  S S S
----------------------------------|--------------------------------------|
----------------------------------|-------7-----------------7------------|
--------4h-7p-4-------------------|--7h-9---7----------7h-9---7--------7-|
--8~------------7br-------------x-|-----------9p-8-9~-----------9p-8-9---|
------------------------------x---|--------------------------------------|
----------------------------------|--------------------------------------|


   E    S  E     S  S S  Q    S S  E
-------10---------------------7---10b--|
--10b-----10pbr--7-10-8b-L------7------|
---------------------------------------|
---------------------------------------|
---------------------------------------|
---------------------------------------|


  E   E   E     S  E    S  E     E   S S    E    S S E     S S S  S Q     S S
--L--10--10pbr--7------10----------------|------10----------------------------|
------------------10b-----10pbr--8--10-x-|------10----------------------------|
-----------------------------------------|--9b-------9pbr--7---7s-6-7~--------|
-----------------------------------------|-------------------9------------9-7-|
-----------------------------------------|------------------------------------|
-----------------------------------------|------------------------------------|


  S  S E   E    S  S S S  T S  T E    S  S
-------------------------------------------|
-------7b--7br---------7b---7b---7br-------|
--7h-9----------9p-7-9----------------9p-7-|
-------------------------------------------|
-------------------------------------------|
-------------------------------------------|


                 |--3-|       |--3-|
  S  S  S S  S S E    S Q     E    S E      S S E  S S S S S S S S E  S S
---------------7-------------------------|--------------------------------|
-----7-10----7---------------------------|--3------2------------------3---|
--9b------9b-----9br--7-9b----9br--7-----|--4---3--x---x-x---x--------4---|
-------------------------------------9\--|--4------x---x-x---x---4-4--4---|
-----------------------------------------|--2----------x-x---x---2-2------|
-----------------------------------------|--------------------------------|


  E  S E  S S S S S S S E  S S    E  S E  S S S S S S S S S S S
-------------------------------|--------------------------------|
----------2--------------------|--2----2--2---------------2-----|
--3----3--x-----3---x----------|--2----2--x-----2-----2-L---x-x-|
--4-------x-----4---x---4--4---|--2-------x---2-2---2-------x-x-|
--4-----------4-4---x-4-4--4---|--0-----------0-0---------------|
--2-----------2-------2-2--2---|--------------------------------|


  E  S S S S S S E  S S S S S S    E  S S S S S S E  S E  S S S
--------------------------------|-------------------------------|
-----------0--------------------|-----------3-------------3-----|
-------1-L---x-x----------------|--0----0-L---x-x------0----x-x-|
-------------x-x----------------|--0----------x-x-----------x-x-|
--2-----------------------------|--2----------------------------|
--0--0-----------0----0-----2---|--3--L-----------3-------------|


  E  S S S S S S S S S S E  E      E  S S S S S S E  S S S S S S
-----------2-----2-L------------|-----------0--------------0-----|
--3------3-------3-L------------|-----------0--------------0-----|
--2--x-x-----x-x-----x-x-7--L\--|-------0-L---x-x------0-L---x-x-|
--0--x-x-----x-x-----x-x-7--L\--|-----2-------x-x----2-------x-x-|
--------------------------------|--2-----------------------------|
--------------------------------|--0--L-----------0--------------|


  E  S S S S S S S S S S  E     E
-----------2-----------------------|
-----------2-----------------------|
--3----3-L---x-3-3---x-x-18br--16--|
--4--2-------x-4-4---x-x-----------|
--4------------4-4-----------------|
--2--L---------2-2-----------------|


   H          S   S  S   S  T   T   S  S  S     H.            Q
--------------------------------------------|----------------------|
-----------------15-----15------------------|----------------------|
--17b--------17b----17b---------------------|--15~------------L----|
---------------------------16p-14S-12-------|----------------------|
--------------------------------------14-13-|----------------------|
--------------------------------------------|----------------------|


  H        Q.     S S    H.           E   E
----------------------|-----------------------|
----------------------|------------------13b--|
----------------------|-----------------------|
--2-------------------|-----------------------|
--0--------L----------|-----------------------|
------------------3-2-|--0--------------------|


   S  S  S  S  S  S  S  S  S  S  S  S   S S  S   S
--10-----------------------------------------------|
--------12----10-----------------------------------|
--------------------12----11-----------------------|
-----12----12-------------------12-----------------|
-----------------12----12----12----12S-10-9-10S-12-|
---------------------------------------------------|


   E    S S  S  S  E     Q    S S  E      Q     S S  E   Q     Q
------/14---12-10---------------------|------------------------------|
--------------------------------------|-----------------10----11b----|
--11--------------12br--11----x-x-11--|--12~----x-x-12---------------|
------------------------------x-x-----|---------x-x------------------|
--------------------------------------|------------------------------|
--------------------------------------|------------------------------|


   Q     E   E   Q     Q
----------------------------|
--11~-------14--15----17----|
----------------------------|
----------------------------|
----------------------------|
----------------------------|


   S   S  S  S   S  S  S   S  S  S   S  S  S   S  E
-----------------------------------------------------|
--19p-15----19p-15----19p-15----19p-15----19p-15-----|
---------16--------16--------16--------16--------16--|
-----------------------------------------------------|
-----------------------------------------------------|
-----------------------------------------------------|


   S   S  S  S   S  S  S   S   Q.     E
-----------------------------/18---------|
--17p-14----17p-14----17p-14-------------|
---------15--------15--------------------|
-----------------------------------------|
-----------------------------------------|
-----------------------------------------|


   S   S  S  S   S  S  S   S  S  S   S  S  S   S  E
-----------------------------------------------------|
--17p-14----17p-14----17p-14----17p-14----17p-14-----|
---------14--------14--------14--------14--------14--|
-----------------------------------------------------|
-----------------------------------------------------|
-----------------------------------------------------|


   S   S  S  S   S  S  S   S   Q.     E
-----------------------------/16---------|
--15p-12----15p-12----15p-12-------------|
---------13--------13--------------------|
-----------------------------------------|
-----------------------------------------|
-----------------------------------------|


   S   S  S  S   S  S  S   S  S  S   S  S  S   S  E
-----------------------------------------------------|
--15p-12----15p-12----15p-12----15p-12----15p-12-----|
---------12--------12--------12--------12--------12--|
-----------------------------------------------------|
-----------------------------------------------------|
-----------------------------------------------------|


   S  S  S  S  S  S  S  S   Q.     E     S S S S S S S S S S S S S S E
--10-------10-------10----/14---------|--7-----7-----7-----7-----7------|
-----10-------10-------10-------------|----8-----8-----8-----8-----8----|
--------11-------11-------------------|------9-----9-----9-----9-----9--|
--------------------------------------|---------------------------------|
--------------------------------------|---------------------------------|
--------------------------------------|---------------------------------|


  S  S  S S  S  S S  S  S S  S  S  S S  S  S
--9-------9-------9-------9-------10-9-10-12-|
----11------11------11------11---------------|
-------11------11------11------11------------|
---------------------------------------------|
---------------------------------------------|
---------------------------------------------|


   S   S  S  S   S  S  S   S  S  S   S  S  S   S  E
--14p-10----14p-10----14p-10----14p-10----14p-10-----|
---------12--------12--------12--------12--------12--|
-----------------------------------------------------|
-----------------------------------------------------|
-----------------------------------------------------|
-----------------------------------------------------|


   S   S  S  E    S  S     S   Q.     E
-----------------------------/18---------|
--17p-14---------17----------------------|
---------15-16b-----16pbr-15-------------|
-----------------------------------------|
-----------------------------------------|
-----------------------------------------|


   S   S  S  S   S  S  S   S  S  S   S  S  S   S  E
-----------------------------------------------------|
--17p-14----17p-14----17p-14----17p-14----17p-14-----|
---------14--------14--------14--------14--------14--|
-----------------------------------------------------|
-----------------------------------------------------|
-----------------------------------------------------|


   S   S  S  E    S  S     S  Q.      E
-----------------------------15b---------|
--15p-12---------15----------------------|
---------13-14b-----14pbr-13-------------|
-----------------------------------------|
-----------------------------------------|
-----------------------------------------|


   S   S  S  S   S  S  S   S  S  S   S  S  S   S  E
-----------------------------------------------------|
--15p-12----15p-12----15p-12----15p-12----15p-12-----|
---------12--------12--------12--------12--------12--|
-----------------------------------------------------|
-----------------------------------------------------|
-----------------------------------------------------|


   S  S  S  E    S  S     S  Q.     E     S S S S S S S S S S S S S S E
--10------------10----------14---------|--7-----7-----7-----7-----7-------|
-----10--------------------------------|----8-----8-----8-----8-----8-----|
--------11-12b-----12pbr-11------------|------9-----9-----9-----9-----9/--|
---------------------------------------|----------------------------------|
---------------------------------------|----------------------------------|
---------------------------------------|----------------------------------|


  S  S  S S  S  S S  S  S S  S  S S  S  E      S S S S H.
--9-------9-------9-------9-------9---------|-----------------------||
----11------11------11------11------11------|-----------------------||
-------11------11------11------11------11\--|-----------------------||
--------------------------------------------|--9-9-9-9--------------||
--------------------------------------------|--9-9-9-9--------------||
--------------------------------------------|--7-7-7-7--------------||





=========================================================
=========================================================




Guitar (Joe Walsh) right channel. Played only on a 6 string guitar with NO capo.



             W                   W                   W
E||-------|-------------------|-------------------|-------------------|
B||-------|-------------------|-------------------|-------------------|
G||-------|-------------------|-------------------|-------------------|
D||-------|-------------------|-------------------|-------------------|
A||-------|-------------------|-------------------|-------------------|
E||-------|-------------------|-------------------|-------------------|


  W                   W                   W                   W
-------------------|-------------------|-------------------|-------------------|
-------------------|-------------------|-------------------|-------------------|
-------------------|-------------------|-------------------|-------------------|
-------------------|-------------------|-------------------|-------------------|
-------------------|-------------------|-------------------|-------------------|
-------------------|-------------------|-------------------|-------------------|


  W                   H        Q     Q       Q.      E  H
-------------------|----------------------|----------------------|
-------------------|----------------------|----------------------|
-------------------|----------------------|----------------------|
-------------------|-----------------4----|----------------------|
-------------------|--5--------7~---------|--7~------5--4--------|
-------------------|----------------------|----------------------|


  H        Q    Q        W                   H        Q    Q
----------------------|-------------------|---------------------|
----------------------|-------------------|---------------------|
----------------------|-------------------|---------------------|
----------------------|-------------------|---------------------|
--4--------5----7\----|--2----------------|--2--------4----5----|
----------------------|-------------------|---------------------|


  H         Q    Q       H        Q    Q       W
----------------------|---------------------|-------------------|
----------------------|---------------------|-------------------|
----------------------|---------------------|-------------------|
-----------/4---------|-----------4----5----|--4----------------|
--0--------------5----|--7------------------|-------------------|
----------------------|---------------------|-------------------|


  E  S S E  S S E  S S E  S S    E  S S E  S S E  S S E  S S
------------------------------|------------------------------|
------------------------------|------------------------------|
-----x-x----x-x----x-x----x-x-|-----x-x----x-x----x-x----x-x-|
-----x-x----x-x----x-x----x-x-|-----x-x----x-x----x-x----x-x-|
-----x-x----x-x----x-x----x-x-|-----x-x----x-x----x-x----x-x-|
------------------------------|------------------------------|


  E  S S E  S S E  S S E  S S    E  S S E  S S E  S S E  S S
------------------------------|------------------------------|
------------------------------|------------------------------|
-----x-x----x-x----x-x----x-x-|-----x-x----x-x----x-x----x-x-|
-----x-x----x-x----x-x----x-x-|-----x-x----x-x----x-x----x-x-|
-----x-x----x-x----x-x----x-x-|-----x-x----x-x----x-x----x-x-|
------------------------------|------------------------------|


  E  S S E  S S E  S S E  S S    E  S S E  S S E  S S E  S S
------------------------------|------------------------------|
------------------------------|------------------------------|
-----x-x----x-x----x-x----x-x-|-----x-x----x-x----x-x----x-x-|
-----x-x----x-x----x-x----x-x-|-----x-x----x-x----x-x----x-x-|
-----x-x----x-x----x-x----x-x-|-----x-x----x-x----x-x----x-x-|
------------------------------|------------------------------|


  E  S S E  S S E  S S E  S S    E  S S E  S S E  S S E  S S
------------------------------|------------------------------|
------------------------------|------------------------------|
-----x-x----x-x----x-x----x-x-|-----x-x----x-x----x-x----x-x-|
-----x-x----x-x----x-x----x-x-|-----x-x----x-x----x-x----x-x-|
-----x-x----x-x----x-x----x-x-|-----x-x----x-x----x-x----x-x-|
------------------------------|------------------------------|


  H.           E  E       H.           E  E       H.           Q
-----------------------|-----------------------|----------------------|
-----------------------|-----------------------|----------------------|
--4------------6--6br--|--3------------6--6br--|---------------6br----|
-----------------------|-----------------------|--7-------------------|
-----------------------|-----------------------|----------------------|
-----------------------|-----------------------|----------------------|


  H.           Q       H.           E  E       H.           Q
--------------------|-----------------------|--------------------|
--------------------|-----------------------|--------------------|
--------------------|---------------6--6br--|--------------------|
--6-----------------|--5--------------------|--4-----------------|
--------------------|-----------------------|---------------5----|
--------------------|-----------------------|--------------------|


  H.           Q        H        E  E  S S S S    W
---------------------|-------------------------|--------------------|
---------------------|-------------------------|--------------------|
---------------------|-------------------------|--------------------|
---------------4b----|--4--------L-------------|--------------------|
--7------------------|-------------------1-2-4-|--5~----------------|
---------------------|-----------------2-------|--------------------|


                                          PM PM
  E   S  S S  S S  S     E   E   E  E     S  S  S S E  S S E  S S E  S S
---------------------------------------|---------------------------------|
-----10-10---12---10-12g14--12--10-----|---------------------------------|
-----11------12---11-12g14--12--11-----|----------3----x-x----x-x----x-x-|
---------------------------------------|---------------x-x----x-x----x-x-|
---------------------------------------|--------4------x-x----x-x----x-x-|
---------------------------------------|--2--2---------------------------|


  Q     Q     Q    E  E      W
--------------------------|-------------------|
--------------------------|-------------------|
--------------------------|-------------------|
----------------------4\--|--0----------------|
--2~----4~----5----7------|--2----------------|
--------------------------|--3----------------|


                          PM PM
  S     E      E   E   S  S  S  S S  E   E     W
--------------------------------------------|-------------------|
-------15-----15--15-----------12-----------|-------------------|
----14g16--14g16--14-----------12-----------|-------------------|
----------------------16----12------16\-----|-------------------|
-------------------------12-----------------|-------------------|
--------------------------------------------|-------------------|


  W                   E  S S E  S S E  S S E  S S
-------------------|------------------------------|
-------------------|------------------------------|
-------------------|-----x-x----x-x----x-x----x-x-|
-------------------|-----x-x----x-x----x-x----x-x-|
-------------------|-----x-x----x-x----x-x----x-x-|
-------------------|------------------------------|


  E  S S E  S S E  S S E  S S    E  S S E  S S E  S S E  S S
------------------------------|------------------------------|
------------------------------|------------------------------|
-----x-x----x-x----x-x----x-x-|-----x-x----x-x----x-x----x-x-|
-----x-x----x-x----x-x----x-x-|-----x-x----x-x----x-x----x-x-|
-----x-x----x-x----x-x----x-x-|-----x-x----x-x----x-x----x-x-|
------------------------------|------------------------------|


  E  S S E  S S E  S S E  S S    E  S S E  S S E  S S E  S S
------------------------------|------------------------------|
------------------------------|------------------------------|
-----x-x----x-x----x-x----x-x-|-----x-x----x-x----x-x----x-x-|
-----x-x----x-x----x-x----x-x-|-----x-x----x-x----x-x----x-x-|
-----x-x----x-x----x-x----x-x-|-----x-x----x-x----x-x----x-x-|
------------------------------|------------------------------|


  E  S S E  S S E  S S E  S S    E  S S E  S S E  S S E  S S
------------------------------|------------------------------|
------------------------------|------------------------------|
-----x-x----x-x----x-x----x-x-|-----x-x----x-x----x-x----x-x-|
-----x-x----x-x----x-x----x-x-|-----x-x----x-x----x-x----x-x-|
-----x-x----x-x----x-x----x-x-|-----x-x----x-x----x-x----x-x-|
------------------------------|------------------------------|


  E  S S E  S S E  S S E  S S    Q    E  S S S  S Q    S S
------------------------------|------------6-7p-6-7--------|
------------------------------|----------------------------|
-----x-x----x-x----x-x----x-x-|------------------------x-x-|
-----x-x----x-x----x-x----x-x-|--9----L----------------x-x-|
-----x-x----x-x----x-x----x-x-|------------------------x-x-|
------------------------------|----------------------------|


  Q    E  S S S  S Q    S S    Q    E  S S S  S Q    S S
------------5-6p-5-6--------|------------4-5p-4-5--------|
----------------------------|----------------------------|
------------------------x-x-|------------------------x-x-|
--8----L----------------x-x-|--7----L----------------x-x-|
------------------------x-x-|------------------------x-x-|
----------------------------|----------------------------|


  Q    E  S S S  S Q    S S    Q    E  S S S  S Q    S S
------------3-4p-3-4--------|------------2-3p-2-3--------|
----------------------------|----------------------------|
------------------------x-x-|------------------------x-x-|
--6----L----------------x-x-|--5----L----------------x-x-|
------------------------x-x-|------------------------x-x-|
----------------------------|----------------------------|


                                                   |--3--|
  Q    E  S S S  S Q    E     Q    E  S S S  S E.  S  S  S S
------------1-2p-1-2-------|---------------------------------|
---------------------------|-----------------------7h-8p-7---|
---------------------------|------------8-9p-8-9-----------9-|
--4----L-------------------|---------------------------------|
------------------------5--|--7----L-------------------------|
---------------------------|---------------------------------|


  H        E   E   S S S S    W                    E  S S E  S S E  S S E  S S
---------------------------|--------------------|------------------------------|
--7--------L---------------|--------------------|------------------------------|
---------------------------|--------------------|-----x-x----x-x----x-x----x-x-|
---------------------------|--------------------|-----x-x----x-x----x-x----x-x-|
---------------------1-2-4-|--5~----------------|-----x-x----x-x----x-x----x-x-|
--------------10\--2-------|--------------------|------------------------------|


  E  S S E  S S E  S S E  S S    Q     Q     Q    E  E      W
------------------------------|--------------------------|-------------------|
------------------------------|--------------------------|-------------------|
-----x-x----x-x----x-x----x-x-|--------------------------|-------------------|
-----x-x----x-x----x-x----x-x-|----------------------4\--|--0----------------|
-----x-x----x-x----x-x----x-x-|--2~----4~----5----7------|--2----------------|
------------------------------|--------------------------|--3----------------|


  E  S S E  S S E  S S E  S S    E  S S S S S S E  S S E  S S
------------------------------|-----------2-------------------|
------------------------------|-----------2-------------------|
-----x-x----x-x----x-x----x-x-|-----x-x-----x-x----x-x----x-x-|
-----x-x----x-x----x-x----x-x-|-----x-x-----x-x----x-x----x-x-|
-----x-x----x-x----x-x----x-x-|-----x-x-----x-x----x-x----x-x-|
------------------------------|-------------------------------|


  W                   W                   W                   W
-------------------|-------------------|-------------------|-------------------|
-------------------|-------------------|-------------------|-------------------|
-------------------|-------------------|-------------------|-------------------|
-------------------|-------------------|-------------------|-------------------|
-------------------|-------------------|-------------------|-------------------|
-------------------|-------------------|-------------------|-------------------|


  W                   W                   W                   W
-------------------|-------------------|-------------------|-------------------|
-------------------|-------------------|-------------------|-------------------|
-------------------|-------------------|-------------------|-------------------|
-------------------|-------------------|-------------------|-------------------|
-------------------|-------------------|-------------------|-------------------|
-------------------|-------------------|-------------------|-------------------|


  W                   Q    E  S S S  S E  E  E
-------------------|------------6-7p-6-7----------|
-------------------|------------------------------|
-------------------|--4----L--------------6--6br--|
-------------------|------------------------------|
-------------------|------------------------------|
-------------------|------------------------------|


  Q    E  S S S  S E  E  E       Q    E  S S S  S E  Q
------------5-6p-5-6----------|------------4-5p-4-5--------|
------------------------------|----------------------2b----|
--3----L--------------6--6br--|--2----L--------------------|
------------------------------|----------------------------|
------------------------------|----------------------------|
------------------------------|----------------------------|


  Q    E  S S S  S Q    E     Q    E  S S S  S E  E  E
------------3-4p-3-4-------|------------2-3p-2-3---------|
---------------------------|-----------------------------|
--1------------------------|----------------------6--6b--|
-------L-------------------|--5----L---------------------|
---------------------------|-----------------------------|
---------------------------|-----------------------------|


                                                   |--3--|
  Q    E  S S S  S Q    E     Q    E  S S S  S E.  S  S  S S
---------------------------|---------------------------------|
------------6-7p-6-7-------|-----------------------7h-8p-7---|
---------------------------|------------8-9p-8-9-----------9-|
--4----L-------------------|---------------------------------|
------------------------5--|--7----L-------------------------|
---------------------------|---------------------------------|


  H        S S S Q    S    E  S E  E.  H           E  S E  E.  H
------------------------|--------------2--------|--------------2--------|
--7---------------------|----------3---L--------|----------2---L--------|
------------------------|-------4------L--------|-------3------L--------|
------------------------|-----4--------L--------|-----4--------L--------|
-----------4---4--------|--2-----------L--------|-----------------------|
-----------2-0-2--------|-----------------------|--2-----------L--------|


  E  S E  E.  H           E  S E  E.  Q    E  E     E  S E  E.  H
--------------5--------|--------------4----------|----------3---3--------|
-----------------------|-------------------------|----------3---3--------|
----------6---L--------|----------4---L----------|----------4---L--------|
-------7------L--------|-------6------L----------|-------5------L--------|
-----7--------L--------|-----7--------L----------|-----5--------L--------|
--5-----------L--------|--0-----------L----0--2--|--3-----------L--------|


  E  S S S  E  S  H           E  S E  E.  H           E  S E  E.  Q.     E
---------0h-2--0h-2--------|--------------0--------|--------------2---------|
-------3----L--3-----------|----------3---L--------|----------2---2---------|
-----2------------L--------|-------0------L--------|-------3------L---------|
--0---------------L--------|-----2--------L--------|-----4--------L---------|
---------------------------|-----------------------|------------------------|
---------------------------|--0-----------L--------|--2-----------L---------|


  alternate picking        -  -  -  -
                                                       |--3--|
  S                 S S S  S          S  S S S  S S  S E     S S S
----------------------7----7-------------7-7----7----7-------------|
--7-----------------7-7-7--7----------7--7-7-7--7-7--7-------------|
--9b--------------------9b------------9b-----9b---9b---9pbr--7-9-7-|
-------------------------------------------------------------------|
-------------------------------------------------------------------|
-------------------------------------------------------------------|


  Q     Q      S    S S S  Q         Q      S  S E   E.  S S  S  S S
---------------------------------|-----------------------7----7------|
---------------------------------|-----------------------7------10-7-|
--9b----9pb----L-9g19------------|--11br----9-11-7b--------9b--------|
---------------------------------|-------------------9---------------|
---------------------------------|-----------------------------------|
----------------------x-0-17\----|-----------------------------------|


   S   S  S S  S  S  S S  Q       S E.
---------10-----------------------------|
--10S-12----0-12-11-10-9~-L----9g19-----|
----------------------------------------|
----------------------------------------|
----------------------------------------|
----------------------------------------|


   E    S  S  E    E   E    S  E      S  T  T     S
---------------------------17-----------17----------|
-------12----12--/15--17b-----17pbr--15----17pbr-15-|
--14b-----14----------------------------------------|
----------------------------------------------------|
----------------------------------------------------|
----------------------------------------------------|


   S   S  S  S     S  E.      Q      E   E
------15-16-17-17g19------------------------|
--17b----------------17pbr---15~----17b-----|
--------------------------------------------|
--------------------------------------------|
--------------------------------------------|
--------------------------------------------|


   E.    E   S  E      Q      E      S S
--------17--17---------------------------|
--17b----------17pbr--17b----17pbr--15---|
-----------------------------------------|
-----------------------------------------|
-----------------------------------------|
-----------------------------------------|


   E    S  E    S  E      Q      E     E      H         H
-------17------17-17----------------------|--17b-----------------|
--17b-----17b-----17pbr--17b----17br--15--|----------------------|
------------------------------------------|----------------------|
------------------------------------------|----------------------|
------------------------------------------|----------------------|
------------------------------------------|----------------------|


  W
-------------------|
-------------------|
-------------------|
-------------------|
-------------------|
-------------------|


   E.    S    S    S    S    S    S    S  S  S  T   T  S  S  S
----------------------------------------------------------------|
--17b---17pb-17pb-17pb-17pb-17pb-17pb-17-17-17-17p-15----17-15b-|
------------------------------------------------------16--------|
----------------------------------------------------------------|
----------------------------------------------------------------|
----------------------------------------------------------------|


   E    S  S   S  S  S  S  S   S  E   E   E
----------------------------------------------|
----------------------------------------------|
--16~--14------------------------14---L\--9b--|
----------16S-14-12----12-14S-16--------------|
--------------------14------------------------|
----------------------------------------------|


  S S  S S S S S S S S S S S  S S  S    E    S S S  S E    Q    E  E
--7----------------------------------|-----/10---7--------------------|
----7-10---7-------------------------|-------------10--------------3--|
---------7---7-9---7-----------------|----------------9pb--7----L-----|
-----------------9-----7-------------|--7-----------------------------|
---------------------9---9-7s-5-7s-9-|--------------------------------|
-------------------------------------|--------------------------------|


  Q.     E  Q    Q        Q.      E  Q    Q
-----------------------|----------6--7----9----|
--5------5--7----Lb----|--7~-------------------|
-----------------------|-----------------------|
-----------------------|-----------------------|
-----------------------|-----------------------|
-----------------------|-----------------------|


   S  S S  S  S S  S  S S  S  S S  S  S E     S  S S S  S S S  S   Q.     E
--10p-7---10p-7---10p-7---10p-7---10p-7----|--9p-6---9p-6---9p-6-/14---------|
--------7-------7-------7-------7-------7--|-------7------7------------------|
-------------------------------------------|---------------------------------|
-------------------------------------------|---------------------------------|
-------------------------------------------|---------------------------------|
-------------------------------------------|---------------------------------|


  S  S S S  S S S  S S S  S S S  S E     S  S S S  S S S  S   Q.     E
--9p-5---9p-5---9p-5---9p-5---9p-5----|--7p-4---7p-4---7p-4-/12---------|
-------5------5------5------5------5--|-------5------5------------------|
--------------------------------------|---------------------------------|
--------------------------------------|---------------------------------|
--------------------------------------|---------------------------------|
--------------------------------------|---------------------------------|


  S  S S S  S S S  S S S  S S S  S E     S  S S S  S S S  S   Q.     E
--7p-3---7p-3---7p-3---7p-3---7p-3----|--5p-2---5p-2---5p-2-/10---------|
-------3------3------3------3------3--|-------3------3------------------|
--------------------------------------|---------------------------------|
--------------------------------------|---------------------------------|
--------------------------------------|---------------------------------|
--------------------------------------|---------------------------------|


  S  S S S  S S S  S S S  S S S  S E     S  S S S  S S S  S S S  S S S  S S  S
--3p-0---3p-0---3p-0---3p-0---3p-0----|--6p-2---6p-2---6p-2---6p-2---7p-6-7s-9-|
-------0------0------0------0------0--|-------2------2------2------2-----------|
--------------------------------------|----------------------------------------|
--------------------------------------|----------------------------------------|
--------------------------------------|----------------------------------------|
--------------------------------------|----------------------------------------|


   S  S S  S  S S  S  S S  S  S S  S  S E     S  S S E   S S    S   Q.     E
--10p-7---10p-7---10p-7---10p-7---10p-7----|--9p-6-------9--------/14---------|
--------7-------7-------7-------7-------7--|-------7-9b----9pbr-7-------------|
-------------------------------------------|----------------------------------|
-------------------------------------------|----------------------------------|
-------------------------------------------|----------------------------------|
-------------------------------------------|----------------------------------|


  S  S S S  S S S  S S S  S S S  S E     S  S S E   S S    S  Q.     E
--9p-5---9p-5---9p-5---9p-5---9p-5----|--7p-4-------7--------12---------|
-------5------5------5------5------5--|-------5-7b----7pbr-3------------|
--------------------------------------|---------------------------------|
--------------------------------------|---------------------------------|
--------------------------------------|---------------------------------|
--------------------------------------|---------------------------------|


  S  S S S  S S S  S S S  S S S  S E     S  S S E   S S    S  Q.     E
--7p-3---7p-3---7p-3---7p-3---7p-3----|--5p-2-------5--------10---------|
-------3------3------3------3------3--|-------3-5b----5pbr-3------------|
--------------------------------------|---------------------------------|
--------------------------------------|---------------------------------|
--------------------------------------|---------------------------------|
--------------------------------------|---------------------------------|


  S  S S S  S S S  S S S  S S S  S E     S  S S S  S S S  S S S  S S S  S E
--3p-0---3p-0---3p-0---3p-0---3p-0----|--6p-2---6p-2---6p-2---6p-2---6p-2----|
-------0------0------0------0------0--|-------2------2------2------2------2--|
--------------------------------------|--------------------------------------|
--------------------------------------|--------------------------------------|
--------------------------------------|--------------------------------------|
--------------------------------------|--------------------------------------|


  S S S S H.
-----------------------||
-----------------------||
-----------------------||
--4-4-4-4--------------||
--2-2-2-2--------------||
-----------------------||




Duration Legend
---------------
W - whole
H - half
Q - quarter
E - 8th
S - 16th
T - 32nd
X - 64th
. - note dotted
|-n-|  - n-tuplets


Tablature Legend
----------------
L - tied note
x - dead note
g - grace note
(n) - ghost note
> - accentuded note
NH - natural harmonic
AH - artificial harmonic
TH - tapped harmonic
SH - semi harmonic
PH - pitch harmonic
h - hammer on
p - pull off
b - bend
br - bendRelease
pb - preBend
pbr - preBendRelease
brb - bendReleaseBend
\n/ - tremolo bar dip
\n - tremolo bar dive
-/n - tremolo bar Release up
/n\ - tremolo bar inverted dip
/n - tremolo bar return
-\n - tremolo bar Release down
S - shift slide
s - legato slide
/ -  slide into from below or out of upwards
\ -  slide into from above or out of downwards
~ - vibrato
W - wide vibrato
tr - trill
TP - tremolo picking
T - tapping
S - slap
P - pop
< - fade in
^ - brush up
v - brush down

            
            
Suggest correction
Creating personal tab
Creating personal tab
You can edit any tab online and save it as your Personal.

You can edit, replace or remove any tab part or add personal notes – all changes will be seen only by you.

Personal tabs can be accessed anytime from any device, even offline.
Learn more »
Give kudos to tab author, rate the tab!
1 2 3 4 5
comments
print report bad tab
guest
You may want to rate the tab now too:
select rating
Wanna post a correction for this tab? Suggest correction