Oops, an error
Loading. Please wait.

Hotel California Tab

version 4
version 4

Whole song

Video

  • This video is a first in a series that covers ever... Show more
92,294 views 84 this week
1 commentread comment
1 2 3 4 5
x 10
add to favorites
launch autoscroll
font size
0
reset
how to read this tab
guitar tuner
backing track
0:00
0:00
×
Best way to learn
"Hotel California"
Autoscroll
slow
fast
+/-
esc
set tempo
stop
Author
[Intro]
   Bm
e|--2--2--------2-----------2---------0--2---|
B|--3-----3--------3-----------3-------------|
G|--4--------4--------4-----------4----------|
D|--4--------------------4------------4--4---|
A|-------------------------------------------|
E|-------------------------------------------| 

 F#m
e|--2--2--------2----------| short |--2-----------|
B|--2-----2--------2-------| pause |-----2--------|
G|--2--------2--------2----|       |--------2-----|
D|--4--------------------4-|       |-----------4--|
A|--4----------------------|       |--------------|
E|-------------------------|       |--------------|

  A
e|--2--2--------2---------------------------|
B|--2-----2--------2------3--2-----5--2-----|
G|--2--------2--------2---------2--------2--|
D|--2---------------------------------------|
A|--0---------------------0--0--0--0--0--0--|
E|------------------------------------------|

  Em
e|--0--0--------0--------0--| short |--0--------|
B|--0-----0--------0-----0--| pause |-----0-----|
G|--0-----------------0--0--|       |--------0--|
D|--2--------2-----------2--|       |-----------|
A|--2--------------------2--|       |-----------|
E|--0--------------------0--|       |-----------|

  G                 h=hammer   
e|--3--3---------3-----------3---------------3-----|
B|--3-----3---------3-----------3-------3h5-----5--|
G|--4--------4---------4-----------4---------------|
D|--5---------------------5-------------5----------|
A|-------------------------------------------------|
E|-------------------------------------------------|

  D                 h=hammer     p=pull off
e|------2--------2-----------2------2h3p2---------|
B|--3------3--------3-----------3-----------3-----|
G|------------2--------2-----------------------2--|
D|--0---------------------0-----------------------|
A|------------------------------------------------|
E|------------------------------------------------|

  Em
e|-----0-----------0-----------0--------0--------|
B|--------0-----------0-----------0--------0-----|
G|-----------0-----------0--------------------0--|
D|--------------2--------------------2-----------|
A|--------------------------2--------------------|
E|--0--------------------------------------------|

  F#                                              Bm                             
e|--2--2--------2-----------| short |--2-------------2----|
B|--2-----2--------2--------| pause |-----2----------3----|
G|--3--------3--------3-----|       |--------3-------4----|
D|--4--------------------4--|       |-----------4----4----|
A|--------------------------|       |---------------------|
E|--------------------------|       |---------------------|

             v=vibrate x=mute    p=pulloff
                                                        (very quickly)
e|-----------------------------------|----------------|----------------|
B|--------10--12---12/15---10h12-----|-------7--------|----------------|
G|-///11--------------------------9--|--7h9-----7-----|----------------|
D|-----------------------------------|-------------8v-|--7h8h9p7h8v----|
A|-----------------------------------|----------------|----------------|
E|-----------------------------------|----------------|----------------|

e|---------------------------------------------|
B|-------7--------------------7----------------|
G|--7h9-----7------------7h9-----7-------------|
D|-------------9--7--9--------------9--7--9--7-|
A|---------------------------------------------|
E|---------------------------------------------|

e|--------10-------------------|
B|--9/12------12\10--7--10--8--|
G|-----------------------------|
D|-----------------------------|
A|-----------------------------|
E|-----------------------------|

e|--7-----9/12--12--10--10p7------|---------10-------------|
B|-----7----------------------10--|--10/12------12\10--8v--|
G|--------------------------------|------------------------|
D|--------------------------------|------------------------|
A|--------------------------------|------------------------|
E|--------------------------------|------------------------|

e|---------------------------------|
B|--------10-----------------------|
G|--7/11------11\9--7----7--6--7v--|
D|---------------------------------|
A|---------------------------------|
E|---------------------------------|

   *= kill the note as soon as it's struck

e|------------------------------------------------------|
B|-------7h8*--7h8p7*---------7h8*--7h8*--7h8p7*--------|
G|--7/9----------------9--7-----------------------9--7--|
D|------------------------------------------------------|
A|------------------------------------------------------|
E|------------------------------------------------------|

e|---------------------------------------|
B|--------10------10---------------------|
G|--9/11------11------9h11p9------9h11v--|
D|----------------------------12---------|
A|---------------------------------------|
E|---------------------------------------|

e|---------------------------------------------------------------|
B|-------10------10------10------10------------------------------|
G|--9h11----9h11----9h11----9h11----9h11p9----9--9h11v//////////-|
D|-----------------------------------------12--------------------|
A|---------------------------------------------------------------|
E|---------------------------------------------------------------|

   ^=bend up so note equals 1 fret

e|-----------------------|----------7-------|------10-------------|
B|--9^--7h8p7------------|-------7-----9--7-|-9/12----12-11-10-9--|
G|--x----------7h9p7-----|--7h9-------------|---------------------|
D|--x-----------------9--|------------------|---------------------|
A|--x--------------------|------------------|---------------------|
E|--x--------------------|------------------|---------------------|

e|-------10--10--12--10--12/14--14\12--10------|
B|--9/12-----------------------------------12--|
G|---------------------------------------------|
D|---------------------------------------------|
A|---------------------------------------------|
E|---------------------------------------------|

e|---------14--15--17p15p14------------|
B|--15h17--------------------15--15-17-|
G|-------------------------------------|
D|-------------------------------------|
A|-------------------------------------|
E|-------------------------------------|

e|---------17--17------------|--------------------|
B|--17/19----------19p17h19v-|-17--19p17------17--|
G|---------------------------|------------18------|
D|---------------------------|--------------------|
A|---------------------------|--------------------|
E|---------------------------|--------------------|

e|---------17--17------------|--------------------|
B|--17/19----------19p17h19v-|-17--19p17------17--|
G|---------------------------|------------18------|
D|---------------------------|--------------------|
A|---------------------------|--------------------|
E|---------------------------|--------------------|

e|--7//10v----------------------------------------|
B|----------15--12--15--12--15p12p0----------11v--|
G|----------x------------------------12--11-------|
D|----------x-------------------------------------|
A|----------x-------------------------------------|
E|----------x-------------------------------------|

 note-during this part- on the 12's- bend, then gradually release

e|--12-12-12-12-12-12-12-12-12-12-12p10p0---10p7p0-------|
B|--x-----------------------------------------------12v--|
G|--x----------------------------------------------------|
D|--x----------------------------------------------------|
A|--x----------------------------------------------------|
E|--x----------------------------------------------------|

e|--------------------------|
B|--10p7p0--------------10v-|
G|----------9--7--9/11------|
D|--------------------------|
A|--------------------------|
E|--------------------------|

e|---------------------------------------------------------------|
B|-------10----8---7-----------------------------------8/9\-8--7-|
G|--9/11----11---9---7--9---7--------------------------9/11\9--7-|
D|------------------------9---7--9---7---5---------7-9-----------|
A|---------------------------------9---7---7-5-7/9---------------|
E|---------------------------------------------------------------|

e|---------------------------7--9---|
B|--7--8--8--10--12--11--11--9--11--|
G|--7--9--9--11--12--11--11---------|
D|----------------------------------|
A|----------------------------------|
E|----------------------------------|

e|-14-10-----14-10-----14-10-----14-10-----14-10-----|
B|-x-----12--------12--------12--------12--------12--|
G|-x-------------------------------------------------|
D|-x-------------------------------------------------|
A|-x-------------------------------------------------|
E|-x-------------------------------------------------|

e|--9--------9--------9-----11///14v--|
B|----10-------10-------10------------|
G|-------11-------11------------------|
D|------------------------------------|
A|------------------------------------|
E|------------------------------------|

e|--9-------9-------9------9-------9-------|
B|----10------10------10-----10------10----|
G|-------9-------9-------9------9-------9--|
D|-----------------------------------------|
A|-----------------------------------------|
E|-----------------------------------------|

e|--7------7------7-----9//12v--|
B|----8------8------8-----------|
G|------9------9----------------|
D|------------------------------|
A|------------------------------|
E|------------------------------|

e|--7------7-----7-----7-----7------|
B|----8------8-----8-----8-----8----|
G|------7------7-----7-----7-----7--|
D|----------------------------------|
A|----------------------------------|
E|----------------------------------|

e|--5------5-----5----7//10v--|
B|----7------7-----7----------|
G|------7------7--------------|
D|----------------------------|
A|----------------------------|
E|----------------------------|

e|--3------3-----3-----3-----3------|
B|----5------5-----5-----5-----5----|
G|------4------4-----4-----4-----4--|
D|----------------------------------|
A|----------------------------------|
E|----------------------------------|

e|--6------6------6----7//9--7h9p7--6---|
B|----7------7------7-------------------|
G|------6------6------------------------|
D|--------------------------------------|
A|--------------------------------------|
E|--------------------------------------|


************************************

| h  Hammer-on
| p  Pull-off
| /  Slide up
| \  Slide down
| *  Natural harmonic
| x  Dead note

************************************
Suggest correction
comments
print report bad tab
1 comment total.
0 reply
seb598 55 Jul 10, 2014 06:43 PM

i'd like to know what the lead guitar does during the lyrics. And I'm pretty sure the beginnin of the solo is wrong

guest
You may want to rate the tab now too:
select rating
Wanna post a correction for this tab? Suggest correction