Oops, an error
Loading. Please wait.

Hotel California Tab

version 8
299,066 views 174 this week
23 commentsread comments
1 2 3 4 5
excellent!
x 46
add to favorites
launch autoscroll
font size
0
reset
how to read this tab
guitar tuner
Autoscroll
slow
fast
+/-
esc
set tempo
stop
Help us to improve Ultimate-Guitar.com Take our survey!
×
Contributor
TheMutts 13,490
#----------------------------------PLEASE NOTE---------------------------------#
#This file is the author's own work and represents their interpretation of the #
#song. You may only use this file for private study, scholarship, or research. #
#------------------------------------------------------------------------------##

                                HOTEL CALIFORNIA
                            As recorded by The Eagles
                     (From the 1976 Album HOTEL CALIFORNIA)

Words and Music by Don Henley, Glenn Frey and Don Felder
Transcribed by Roadkill

          Bm                   F#7                 Asus2                E9/G#
      7 9 9 7 7 7          x 9 8 9 7 9         x x 7 9 10 7         x 11 9 7 7 7

           G                    D                   Em7                 F#+5
     x 10 9 7 8 7         10 9 7 7 7 10         x 7 9 7 8 7          x 9 8 7 7 x

         F7b9
      x 8 7 8 7 8

Gtr I (E A D G B E) - 'Gtr. 1'
Gtr II (E A D G B E) - 'Gtr. 2'
Gtr III (E A D G B E) - 'Gtr. 3'
Gtr IV (E A D G B E) - 'Gtr. 4'
Gtr V (E A D G B E) - 'Gtr. 5'
Gtr VI (E A D G B E) - 'Gtr. 6'


[Intro]

  Moderately Slow Q=80
  Bm                     F#7                  Asus2
 4/4
  Gtr I

  E S S S S S S Q  E E   E S S S S S S H      E S  S  S E  S E S  S E S S
e|---------------7------|---------9----------|-----12----7------------------|
B|-7-------7----------7-|-----7-------7------|--------10---10-----10-----7--|
G|-7---7-------7----7-9-|---9-------9--------|---9--------------9------9----|
D|-9-----9---9----------|-8-------------8----|-7--------------7-------------|
A|-9-9------------------|-------9------------|-----------------------7------|
E|-7--------------------|--------------------|------------------------------|


   E9/G#                 G
    E S S S S S S H       E S S S S S S E  S S S S E
e|----7-----------7----|----7---7-------7------------|
B|----------7----------|----------8----------8-------|
G|------7-----7-7------|------7-------7------------7-|
D|--------9------------|------------9----------7h9---|
A|-11------------------|-10---------------10---------|
E|---------------------|-----------------------------|


   D                             Em7
   E S S S  S S S E S S  E S S   E S S S S S S E S S E S S
e|---------10------------------|---7-----------7------------|
B|-----7--------7-----7------7-|---------8---8-----------7--|
G|---7---7----------7----------|-----7-------------7--------|
D|-7----------7------------7---|-------9---9-----9-----9----|
A|----------------9------------|-7--------------------------|
E|----------------------10-----|---------------------7------|


   F#7                  Bm7                        F#7
   Gtr II
                                       ~           ~~
   W                    H              Q     Q     Q.         E   H
e|--------------------|--------------------------|---------------------|
B|--------------------|--------------------------|---------------------|
G|--------------------|--------------------------|---------------------|
D|--------------------|-0--------------2-----4---|-2----------0--------|
A|--------------------|--------------------------|----------------4----|
E|--------------------|--------------------------|---------------------|
 |
 | Gtr I
 | E S S S S S S H      E S S  S S S S E S S E E   E  S S S S S S H
e|---------------9----|-------10-------7-7-------|----------9----------|
B|---------7----------|-7--------7-7-------7---7-|------7-------7------|
G|-----9-9-----9------|-7-7-7--------7-------7-9-|----9-------9--------|
D|---8-------8--------|-9------------------------|-8--------------8----|
A|-9------------------|-9------------------------|--------9------------|
E|--------------------|-7------------------------|---------------------|


   Asus2                         E9/G#
   H              Q      Q        S S S S +S  S S S H
e|-----------------------------|-------------------------|
B|-----------------------------|-------------------------|
G|-----------------------------|--------1-(1)---1--------|
D|----------------0------2-----|--2---0-------0---0------|
A|-4---------------------------|----2---------------2----|
E|-----------------------------|-------------------------|
 |
 | E S  S  S E  S E S  S E S S    E   S S  S  S S S H
e|-----12----7-----------------|------7-------------7----|
B|--------10---10-----10-----7-|--------------7----------|
G|---9--------------9------9---|--------7-------7-7------|
D|-7--------------7------------|-----------9-------------|
A|-----------------------7-----|-11----------------------|
E|-----------------------------|-------------------------|


   G                             D
    E S S E   S S Q      Q       Q..            S   Q       Q
e|-----------------------------|----------------------------------|
B|-----------------------------|------------------^-3-------------|
G|--------------0--------------|------------------^-2-------2-----|
D|------0----------------0-----|------------------^-4-------4-----|
A|--2-2---2---2---4------------|-0----------------^-0-------------|
E|--3--------------------------|-2--------------2-^(2)------------|
 |
 |  E S S S S S S E  S S S S E   E   S S S  S S S   E  S S  E S S
e|----7---7-------7------------|-----------10---------------------|
B|----------8----------8-------|-------7--------7--------7------7-|
G|------7-------7------------7-|-----7---7-------------7----------|
D|------------9----------7h9---|-7------------7---------------7---|
A|-10---------------10---------|--------------------9-------------|
E|-----------------------------|---------------------------10-----|


   Em7                             F#7
   E S S S S S S S S S S S S S S   S S S S S S S S H
e|-------0---------------------0-|----------------------||
B|-0---0---0---0-------0-----0---|-------0-------0------||
G|---0-------0-----2-----0-------|-----3---3---3---3----||
D|-2-------------4---------------|---4-------4----------||
A|-------------------2-----2-----|----------------------||
E|-------------------------------|-2--------------------||
 |
 | E S S S S S S E   S S E   S S   E   S S S S S S H
e|---7-----------7---------------|-----------------9----||
B|---------8---8---------------7-|-----------7----------||
G|-----7---------------7---------|-------9-9-----9------||
D|-------9---9-------9-------9---|-----8-------8--------||
A|-7-----------------------------|-9--------------------||
E|-----------------------7-------|----------------------||


[1st Verse]

  Bm                            F#7
  Gtr IV
  E   S S E   S S E S S E S S   E   S S E   S S E S S E S S
      | |     | |   | |   | |       | |     | |   | |   | |
      / /     / /   / /   / /       / /     / /   / /   / /

   Gtr III
   S S S S Q       H             S S S S Q       H
e|-----------------------------|-----------------------------|
B|-----------------------------|-----------------------------|
G|-----------------------------|-----------------------------|
D|-------9---------------------|-8-8-------------------------|
A|-----9-----------------------|-----9-9---------------------|
E|-7-7-------------------------|-----------------------------|
 |
 | Gtr I
 | E   E   S S S S E S S E E     E   S S S S S S H
e|-----------------7-----------|-----------9-----------------|
B|-----7-----7---------7---7---|-------7-------7-------------|
G|---------7-----7---7---7-9---|-----9-------9---------------|
D|-9-----------9---------------|-8---------------8-----------|
A|-----------------------------|---------9-------------------|
E|-----------------------------|-----------------------------|


  Asus2
  E   S  S  E   S  S E S  S E S S
      |  |      |  |   |  |   | |
      /  /      /  /   /  /   / /

   S S S  S  Q        H
e|-----------------------------------|
B|-----------------------------------|
G|-----------------------------------|
D|--------7--------------------------|
A|-----7-----------------------------|
E|-5-5-------------------------------|
 |
 | E   S  S  S E    S E S  S E S S
e|-------12----7---------------------|
B|----------10-----10-----10-----7---|
G|-----9----------------9------9-----|
D|-7------------------7--------------|
A|---------------------------7-------|
E|-----------------------------------|


  E9/G#                          G
   E   S S E   S S E S S E S S    E   S S E   S S E  S S E   S S
       | |     | |   | |   | |        | |     | |    | |     | |
       / /     / /   / /   / /        / /     / /    / /     / /

    S S S S Q       H              S S S S Q       H
e|------------------------------|---------------------------------|
B|------------------------------|---------------------------------|
G|--------9---------------------|---------------------------------|
D|------9-----------------------|--------5------------------------|
A|--7-7-------------------------|------5--------------------------|
E|------------------------------|--3-3----------------------------|
 |
 |  E   S S S S S S H              E   S S S S S S E  S S S S E
e|------7-----------7-----------|------7---7-------7--------------|
B|------------7-----------------|------------8----------8---------|
G|--------7-----7-7-------------|--------7-------7------------7---|
D|----------9-------------------|--------------9----------7h9-----|
A|-11---------------------------|-10-----------------10-----------|
E|------------------------------|---------------------------------|


  D
  E   S S E    S S E S S  E S S
      | |      | |   | |    | |
      / /      / /   / /    / /

   S S S S Q        H
e|--------------------------------|
B|--------------------------------|
G|-------7------------------------|
D|-----7--------------------------|
A|-5-5----------------------------|
E|--------------------------------|
 |
 | E   S S S  S S S E S S  E S S
e|-----------10-------------------|
B|-------7--------7-----7------7--|
G|-----7---7----------7-----------|
D|-7------------7------------7----|
A|------------------9-------------|
E|------------------------10------|


  Em7                           F#7
  E   S S E   S S E S S E S S   E   S S E   S S E S S E S S
      | |     | |   | |   | |       | |     | |   | |   | |
      / /     / /   / /   / /       / /     / /   / /   / /

   S S S S Q       H             S S S S Q       H
e|-----------------------------|-----------------------------|
B|-----------------------------|-----------------------------|
G|-----------------------------|-----------------------------|
D|-------9---------------------|-------4---------------------|
A|-7-7-9-----------------------|-----4-----------------------|
E|-----------------------------|-2-2-------------------------|
 |
 | E   S S S S S S E S S E S S   E   S S S S S S H
e|-----7-----------7-----------|-----------------9-----------|
B|-----------8---8-----------7-|-----------7-----------------|
G|-------7-------------7-------|-------9-9-----9-------------|
D|---------9---9-----9-----9---|-----8-------8---------------|
A|-7---------------------------|-9---------------------------|
E|-----------------------7-----|-----------------------------|
 |
 | Gtr VI
 | W                             W
e|-----------------------------|-----------------------------|
B|-----------------------------|-----------------------------|
G|-----------------------------|-----------------------------|
D|-----------------------------|-----------------------------|
A|-----------------------------|-----------------------------|
E|-----------------------------|-----------------------------|


  Bm
  Gtr I
  Q       +S S S S E S S E S S
  |        | | | | | | | | | |
  /        / / / / / / / / / /

   S S S S  Q       H
e|--------------------------------|
B|--------------------------------|
G|--------------------------------|
D|-------9------------------------|
A|-----9--------------------------|
E|-7-7----------------------------|
 |
 | Gtr V
 | ~
 | W
e|--------------------------------|
B|--------------------------------|
G|-7------------------------------|
D|--------------------------------|
A|--------------------------------|
E|--------------------------------|
 |
 | ~
 | W
e|--------------------------------|
B|--------------------------------|
G|--------------------------------|
D|-9------------------------------|
A|--------------------------------|
E|--------------------------------|


  F#7                   Asus2
  E.     S S E S H      Q       +S E   S E   S S E E
  |      | | | | |      |        | |   | |   | | | |
  /      / / / / /      /        / /   / /   / / / /

   S  S S S Q     H      S S S S  S S S S S S E   E E
e|---------------------|------------------------------|
B|---------------------|------------------------------|
G|---------------------|------------------------------|
D|--------4------------|-------7----7-----7-7-7---7-7-|
A|------4--------------|-----7----------7-------------|
E|-2--2----------------|-5-5--------------------------|
 |
 | ~~~~~~~~~~~~~~~~~~~~~~~~
 | W                     W
e|---------------------|------------------------------|
B|---------------------|------------------------------|
G|-6-------------------|-6----------------------------|
D|---------------------|------------------------------|
A|---------------------|------------------------------|
E|---------------------|------------------------------|
 |
 | ~~~~~~~~~~~~~~~~~~~~~~~~
 | W                     W
e|---------------------|------------------------------|
B|---------------------|------------------------------|
G|---------------------|------------------------------|
D|-8-------------------|-7----------------------------|
A|---------------------|------------------------------|
E|---------------------|------------------------------|


  E9/G#                 G
  E   S S +S S E H      Q       +S S S S E S S E S S
  |   | |  | | | |      |        | | | | | | | | | |
  /   / /  / / / /      /        / / / / / / / / / /

   S S S S  Q     H      S S S S  Q       H
e|---------------------|------------------------------|
B|---------------------|------------------------------|
G|-------9-------------|------------------------------|
D|-----9---------------|-------5----------------------|
A|-7-7-----------------|-----5------------------------|
E|---------------------|-3-3--------------------------|
 |
 | ~~~~~~~~~~~~~~~~~~~~~~~~~~~~~~~~~~~~~~~~~~~~~~~~~~~~
 | W                     W
e|---------------------|------------------------------|
B|---------------------|------------------------------|
G|-4-------------------|-4----------------------------|
D|---------------------|------------------------------|
A|---------------------|------------------------------|
E|---------------------|------------------------------|
 |
 | ~~~~~~~~~~~~~~~~~~~~~~~~~~~~~~~~~~~~~~~~~~~~~~~~~~~~
 | W                     W
e|---------------------|------------------------------|
B|---------------------|------------------------------|
G|---------------------|------------------------------|
D|-6-------------------|-5----------------------------|
A|---------------------|------------------------------|
E|---------------------|------------------------------|


  D
  Q        +S S S S E S S E S S
  |         | | | | | | | | | |
  /         / / / / / / / / / /

   S  S S S  Q       H
e|-------------------------------|
B|-------------------------------|
G|--------7----------------------|
D|------7------------------------|
A|-5--5--------------------------|
E|-------------------------------|
 |
 |~~~~
 | H.                      Q
e|-------------------------------|
B|-------------------------------|
G|-2-----------------------------|
D|-------------------------4s====|
A|-------------------------------|
E|-------------------------------|
 |
 |~~~~
 | H.                      Q
e|-------------------------------|
B|-------------------------------|
G|-------------------------------|
D|-4-----------------------------|
A|-------------------------5s====|
E|-------------------------------|


  Em7                              F#7
  E   S S E S S E S S E    S  S    Q       +S S S S Q.       S S
  |   | | | | | | | | |    |  |    |        | | | | |        | |
  /   / / / / / / / / /    /  /    /        / / / / /        x x

   S S S S Q     H                  S S S S  S S S S H
e|--------------------------------|-------------------------------||
B|--------------------------------|-------------------------------||
G|--------------------------------|-------------------------------||
D|-------2------------------------|-------4----4-----4------------||
A|-----2--------------------------|---4-4----------4--------------||
E|-0-0----------------------------|-2-----------------------------||
 |
 | ~                                ~
 | H             Q     E.     +S    H                Q   E    E
e|--------------------------------|-------------------------------||
B|--------------------------------|-------------------------------||
G|--------------------------------|-------------------------------||
D|-5-------------5-----8b9r===(8)-|-8----------------8------------||
A|--------------------------------|----------------------9----9---||
E|--------------------------------|-------------------------------||
 |
 | ~                                ~
 | H             Q     E.     +S    H                Q   S  S S S
e|--------------------------------|-------------------------------||
B|--------------------------------|-------------------------------||
G|--------------------------------|-------------------------------||
D|--------------------------------|-------------------------------||
A|-7-------------7-----9b10r==(9)-|-9----------------9----------4-||
E|--------------------------------|----------------------2/-6-7---||


[Chorus]

  G                          D
  S S S S +S S S S E E E E   S S  S  S +S  E    S     H
  | | | |  | | | | | | | |   | |  |  |  |  |    |     |
  / / / /  / / / / / / / /   x x  /  /  /  /    /     /

   Gtr V
   ~
   W                          W
e|--------------------------|------------------------------------|
B|--------------------------|------------------------------------|
G|--------------------------|------------------------------------|
D|-5------------------------|------------------------------------|
A|--------------------------|------------------------------------|
E|--------------------------|------------------------------------|
 |
 | Gtr VI
 | ~
 | W                          E    S  S  S  S S  S  a  E  E  E E
e|--------------------------|------------------------------------|
B|--------------------------|-----10-10----12---10-12s14-12-10---|
G|--------------------------|-----11-------12---11-12s14-12-11---|
D|--------------------------|------------------------------------|
A|-5------------------------|------------------------------------|
E|--------------------------|------------------------------------|


  F#7                         Bm
  S S S S +S E S E. S E S S   S S S S +S S S S Q     E E
  | | | |  | | | |  | | | |   | | | |  | | | | |     | |
  / / / /  / / / /  / / / /   / / / /  / / / / /     / /

                               ~~~~~~~~~~~
   W                           Q        Q       E S S E E
e|---------------------------|----------------------------|
B|---------------------------|----------------------------|
G|---------------------------|----------------------------|
D|---------------------------|------------------0-0-0-2-4-|
A|---------------------------|-2--------4-----------------|
E|---------------------------|----------------------------|


  G                            D
  S S S S +S S S S E S S E E   S     S S     S  +S   E  S  E.     S E S S
  | | | |  | | | | | | | | |   |     | |     |   |   |  |  |      | | | |
  / / / /  / / / / / / / / /   /     / /     /   /   /  /  /      / / / /

   ~                                                                 ~
   W                            S  a  E    a  S  +S   E  S  S  S s S Q
e|----------------------------|------------------------------------7s5-----|
B|----------------------------|------15------15-(15)-15----------8-8s7-----|
G|----------------------------|---14h16---14h16-(16)-14--------7-----------|
D|-5--------------------------|-------------------------16\-7--------------|
A|----------------------------|--------------------------------------------|
E|----------------------------|--------------------------------------------|


  Em7                      F#7              F#+5
  S S S S +S E S E E E E   Q  +S S S S Q  E E
  | | | |  | | | | | | |   |   | | | | |  | |
  x / / /  / / / / / / /   /   / / / / /  / /

   W                        W
e|------------------------|--------------------||
B|------------------------|--------------------||
G|------------------------|--------------------||
D|------------------------|--------------------||
A|------------------------|--------------------||
E|------------------------|--------------------||


[2nd Verse]

   Bm                                  F#7
   Gtr I
   E    S S S S S S Q   E  E           E   S S S S S S H
e|------------------7----------------|-----------9-----------|
B|-7----------7------------7---------|-------7-------7-------|
G|-7------7-------7-----7--9---------|-----9-------9---------|
D|-9--------9---9--------------------|-8---------------8-----|
A|-9----9----------------------------|---------9-------------|
E|-7---------------------------------|-----------------------|
 |
 | Gtrs V, VI
 | ~~~
 | H.                   e  S     +S    H               Q  Q
e|-----------------------------------|-----------------------|
B|-----------------------------------|-----------------------|
G|-7--------------------9--9b11r=(9)-|-6---------------6-----|
D|-9-------------------11-11b12r(11)-|-8---------------8-----|
A|-----------------------------------|-----------------------|
E|-----------------------------------|-----------------------|
 | H.                   E  S     +S    H               Q  Q
 |
 | Gtr III
 | S  S S S Q       H                  S S S S Q       H
e|-----------------------------------|-----------------------|
B|-----------------------------------|-----------------------|
G|-----------------------------------|-----------------------|
D|--------9--------------------------|-------4---------------|
A|------9----------------------------|-----4-----------------|
E|-7--7------------------------------|-2-2-------------------|


   Asus2                            E9/G#
   E    S  S  S E  S E S  S E S S    E    S S S S S S H
e|--------12----7-----------------|-------7-----------7------------|
B|-----------10---10-----10-----7-|-------------7------------------|
G|------9--------------9------9---|---------7-----7-7--------------|
D|-7-----------------7------------|-----------9--------------------|
A|--------------------------7-----|-11-----------------------------|
E|--------------------------------|--------------------------------|
 |
 |                                   ~~~
 | H.                       Q        H.                  E S   +S
e|--------------------------------|--------------------------------|
B|--------------------------------|----------------------5-5b6r(5)-|
G|-6------------------------------|--4-------------------6-6b7r(6)-|
D|-7------------------------------|--6-----------------------------|
A|--------------------------------|--------------------------------|
E|--------------------------------|--------------------------------|
 | H.                       Q        H.                  E S   +S
 |
 | S  S S  S  Q      H               S  S S S Q       H
e|--------------------------------|--------------------------------|
B|--------------------------------|--------------------------------|
G|--------------------------------|---------9----------------------|
D|---------7----------------------|-------9------------------------|
A|------7-------------------------|--7--7--------------------------|
E|-5--5---------------------------|--------------------------------|


   G                                D
    E    S S S S S S E  S S S S E   E    S S S  S S S E S S  E S S
e|-------7---7-------7------------|------------10------------------|
B|-------------8----------8-------|--------7--------7-----7------7-|
G|---------7-------7------------7-|------7---7----------7----------|
D|---------------9----------7h9---|-7-------------7------------7---|
A|-10------------------10---------|-------------------9------------|
E|--------------------------------|-------------------------10-----|
 |
 |  H.                      Q       H.                       Q
e|--------------------------------|--------------------------------|
B|--------------------------------|--------------------------------|
G|--4-----------------------------|-2------------------------------|
D|--5-----------------------------|-4------------------------4-----|
A|--------------------------------|--------------------------5-----|
E|--------------------------------|--------------------------------|
 |  H.                      Q       H.                       Q
 |
 |  S  S S S Q       H              S  S S S Q        H
e|--------------------------------|--------------------------------|
B|--------------------------------|--------------------------------|
G|--------------------------------|--------7-----------------------|
D|---------5----------------------|------7-------------------------|
A|-------5------------------------|-5--5---------------------------|
E|--3--3--------------------------|--------------------------------|


   Em7
   E    S S S S S S E S S E    S S
e|------7-----------7----------------|
B|------------8---8--------------7---|
G|--------7-------------7------------|
D|----------9---9-----9--------9-----|
A|-7---------------------------------|
E|------------------------7----------|
 |
 | H.                     Q
e|-----------------------------------|
B|-----------------------------------|
G|-----------------------------------|
D|-5----------------------8b9--------|
A|-7----------------------9b10-------|
E|-----------------------------------|
 | H.                     Q
 |
 | S  S S S Q       H
e|-----------------------------------|
B|-----------------------------------|
G|-----------------------------------|
D|--------2--------------------------|
A|------2----------------------------|
E|-0--0------------------------------|


  F#7                    Bm
                         Gtr I
  W                      Q  +S  S S  S  E          S  S   E   S S
                         |   |  | |  |  |          |  |   |   | |
                         /   /  / /  /  /          /  /   /   / /

                          Gtr V
                          ~~~~~~~~~~~~~~~~~~~~~~~~~~~~~~~~~~~~~~~~~~
   E S S S S S S  H       W
e|----------------9-----|------------------------------------------|
B|---------7------------|------------------------------------------|
G|-----9-9-----9--------|-7----------------------------------------|
D|---8-------8----------|-9----------------------------------------|
A|-9--------------------|------------------------------------------|
E|----------------------|------------------------------------------|
 |                        W
 |
 |                        Gtr VI
 | ~~                                               ~~~~~~~~~~~
 | Q     E   E    Q  Q    Q   E.      S  S  S      +E     +Q
e|----------------------|------------14-15-------------------------|
B|----------------------|------------15-17-17b19==(17)---(17)r-----|
G|-------------------6--|------------------18b19==(18)---(18)r-----|
D|-8---------8----9--8--|------------------------------------------|
A|-9---------9---10-----|------------------------------------------|
E|----------------------|------------------------------------------|
  Q     E   E    Q  Q


  F#7
  E. S S  E  S  H
  |  | |  |  |  |
  /  / /  /  /  /

  ~~~~
   W
e|------------------------------------|
B|------------------------------------|
G|-6----------------------------------|
D|-8----------------------------------|
A|------------------------------------|
E|------------------------------------|
 | W
 |
 |                          ~~~~~~~~~
 | Q    E.    S  S  S      +E   +Q
e|-----------14-14--------------------|
B|-----------15-15-17b19==(17)-(17)r--|
G|-----------------16b18==(16)-(16)r--|
D|------------------------------------|
A|------------------------------------|
E|------------------------------------|


  Asus2
  Q  +S  E  S       E            S  S   E   E
  |   |  |  |       |            |  |   |   |
  /   /  /  /       /            /  /   /   /

   ~~~~~~~~~~~~~~~~~~~~~~~~~~~~~~~~~~~~~~~~~~~~~
   W
e|---------------------------------------------|
B|---------------------------------------------|
G|-6-------------------------------------------|
D|-7-------------------------------------------|
A|---------------------------------------------|
E|---------------------------------------------|
 |
 |                                ~~~~~~~~~~~
 | Q   E.    S       S  +S       +E     +Q
e|---------------------------------------------|
B|----------16pb17==16r(16)b17==(16)---(16)r---|
G|----------17pb18==17r(17)b18==(17)---(17)r---|
D|---------------------------------------------|
A|---------------------------------------------|
E|---------------------------------------------|


  E9/G#
  E  S S +S  S E          H
  |  | |  |  | |          |
  /  / /  /  / /          /

  ~~~~
   H.                                        Q
e|------------------------------------------------|
B|------------------------------------------------|
G|-4----------------------------------------------|
D|-6----------------------------------------------|
A|------------------------------------------------|
E|------------------------------------------------|
 |
 |                                      ~~~~~~~~~
 | Q       E.      S       S  +S       +E   +Q
e|------------------------------------------------|
B|----------------16pb17==16r(16)b17==(16)-(16)r--|
G|----------------15pb16==15r(15)b16==(15)-(15)r--|
D|------------------------------------------------|
A|------------------------------------------------|
E|------------------------------------------------|


  G
  Q  +S  S S  S       E            S  S   E   S S
  |   |  | |  |       |            |  |   |   | |
  /   /  / /  /       /            /  /   /   / /

   ~~~~~~~~~~~~~~~~~~~~~~~~~~~~~~~~~~~~~~~~~~~~~~~~~
   W
e|-------------------------------------------------|
B|-------------------------------------------------|
G|-4-----------------------------------------------|
D|-5-----------------------------------------------|
A|-------------------------------------------------|
E|-------------------------------------------------|
 |
 |                                  ~~~~~~~~~~~
 | Q   E.      S       S  +S       +E     +Q
e|-------------------------------------------------|
B|------------14pb15==14r(14)b15==(14)---(14)r-----|
G|------------15pb16==15r(15)b16==(15)---(15)r-----|
D|-------------------------------------------------|
A|-------------------------------------------------|
E|-------------------------------------------------|


  D
  Q   +S  S S  S        E             S  S   E   S S
  |    |  | |  |        |             |  |   |   | |
  /    /  / /  /        /             /  /   /   / /

  ~~~~
   H.                                         Q
e|----------------------------------------------------|
B|----------------------------------------------------|
G|-2--------------------------------------------------|
D|-4------------------------------------------4s======|
A|--------------------------------------------5s======|
E|----------------------------------------------------|
 |
 |                                     ~~~~~~~~~~~
 | Q    E.      S        S   +S       +E     +Q
e|----------------------------------------------------|
B|-------------14pb15===14r=(14)b15==(14)---(14)r-----|
G|-------------13pb14==(13)r(13)b14==(13)---(13)r-----|
D|----------------------------------------------------|
A|----------------------------------------------------|
E|----------------------------------------------------|


  Em7
  E S S E  S  S       E            S   S E     S    S
  | | | |  |  |       |            |   | |     |    |
  / / / /  /  /       /            /   / /     /    /
   ~
   H                   Q                  E.         S
e|-----------------------------------------------------|
B|-----------------------------------------------------|
G|-----------------------------------------------------|
D|-5-------------------5------------------8b9r=======8-|
A|-7-------------------7------------------9b10r======9-|
E|-----------------------------------------------------|
 |
 | Q     E.    S       S   S        Q           E
e|-----------------------------------------------------|
B|------------11pb12==11r=11b12====11r---------14b15---|
G|------------11pb12==11r(11)b12==(11)r--------15b16---|
D|-----------------------------------------------------|
A|-----------------------------------------------------|
E|-----------------------------------------------------|


  F#7
  Gtr IV
   E  S S E S S E E S  S S S
      | |   | |   | |  | | |
      / /   / /   / /  / / /

    ~~~
    H            Q   E    E
e|----------------------------||
B|----------------------------||
G|----------------------------||
D|--8------------8------------||
A|--9------------9---9----9-4-||
E|-------------------2/-6-7---||
 |  H            Q   S  S S S
 |
 |  ~~~
 |  H.               Q
e|----------------------------||
B|-14-------------------------||
G|-15-------------------------||
D|----------------------------||
A|----------------------------||
E|----------------------------||


[Chorus]

  G
  Gtr IV
   E     S  S   E      S  S  E  S S  E  S S
         |  |          |  |     | |     | |
         /  /          /  /     / /     / /
    W
e|-------------------------------------------|
B|-------------------------------------------|
G|-------------------------------------------|
D|-------------------------------------------|
A|-------------------------------------------|
E|-------------------------------------------|
 |
 | Gtr I
 |  S  S  S  S  +S   S  S  S  E  E    E  E
e|--7--7--7--7--(7)--7--7--7--7--7----7--7---|
B|--8--8--8--8--(8)--8--8--8--8--8----8--8---|
G|--7--7--7--7--(7)--7--7--7--7--7----7--7---|
D|--9--9--9--9--(9)--9--9--9--9--9----9--9---|
A|-10-10-10-10-(10)-10-10-10-10-10---10-10---|
E|-------------------------------------------|


  D
  E             S  S   E         S  S  E     S S   E         S   S
                |  |             |  |        | |             |   |
                /  /             /  /        / /             /   /
   E    a  a  a  S  S   S     +S  S  S  E     E     E        +E
e|---------------x-10------------------------------------------------|
B|-----------10------------------------------10---[14]pb15r([14])----|
G|--------10------------9pb11r(9)-7-----9b11-------------------------|
D|-----10----------------------------7-------------------------------|
A|-------------------------------------------------------------------|
E|-------------------------------------------------------------------|
 |
 | S S           S  S   S      E     S  H
e|-x-x----------10-10-(10)----10----10-10----------------------------|
B|-x-x-----------7--7---7------7-----7--7----------------------------|
G|-x-x-----------7--7---7------7-----7--7----------------------------|
D|-x-x-----------7--7---7------7-----7--7----------------------------|
A|-x-x-----------9--9---9------9-----9--9----------------------------|
E|-x-x----------10-10--10-----10----10-10----------------------------|


  F#7                                   Bm
     E     S S  E    S S E  S S E S S   E   S S  E    S S E S S E S S
           | |       | |    | |   | |       | |       | |   | |   | |
           / /       / /    / /   / /       / /       / /   / /   / /
                                         ~~~~~~~~~~~~
     +H.                         Q       Q        Q        E S S E E
e|-------------------------------------|--------------------------------|
B|-([14])------------------------------|--------------------------------|
G|-------------------------------------|--------------------------------|
D|-------------------------------------|-------------------------7-7----|
A|-------------------------------------|-2--------4--------5-5-5-7-9----|
E|-------------------------------------|--------------------------------|
 |
 |    S   S S S +S  E   S E.   S E S S   S S S S +S  S S S Q     E E
e|----9---9-9-9-(9)-9---9-9----9-9-9-9-|-7-7-7-7-(7)-7-7-7-7-----7-7----|
B|----7---7-7-7-(7)-7---7-7----7-7-7-7-|-7-7-7-7-(7)-7-7-7-7-----7-7----|
G|----9---9-9-9-(9)-9---9-9----9-9-9-9-|-7-7-7-7-(7)-7-7-7-7-----7-7----|
D|----8---8-8-8-(8)-8---8-8----8-8-8-8-|-9-9-9-9-(9)-9-9-9-9-----9-9----|
A|----9---9-9-9-(9)-9---9-9----9-9-9-9-|-9-9-9-9-(9)-9-9-9-9-----9-9----|
E|-------------------------------------|-7-7-7-7-(7)-7-7-7-7-----7-7----|


  G
   E     S  S   E      S  S  E  S  S  E  S S
         |  |          |  |     |  |     | |
         /  /          /  /     /  /     / /
    ~~
    W
e|--------------------------------------------|
B|--------------------------------------------|
G|--------------------------------------------|
D|--------------------------------------------|
A|-10-----------------------------------------|
E|--------------------------------------------|
 |
 |  S  S  S  S  +S   S  S  S  E  S  S  E  E
e|--7--7--7--7--(7)--7--7--7--7--7--7--7--7---|
B|--8--8--8--8--(8)--8--8--8--8--8--8--8--8---|
G|--7--7--7--7--(7)--7--7--7--7--7--7--7--7---|
D|--9--9--9--9--(9)--9--9--9--9--9--9--9--9---|
A|-10-10-10-10-(10)-10-10-10-10-10-10-10-10---|
E|--------------------------------------------|


  D
   E     S     S   E      S  S  E           S  S   E       S   S
         |     |          |  |              |  |           |   |
         /     /          /  /              /  /           /   /
                                                            ~~~~
    E     Q                S  S  S      +S   S  S   E       E
e|------------------------22-22-----------------------------------|
B|-------22b24------------------22pb24r(22)p19--------------------|
G|----------------------------------------------x-[21]b23-[21]----|
D|----------------------------------------------------------------|
A|----------------------------------------------------------------|
E|----------------------------------------------------------------|
 |
 |  S  S  S     S  +S   E     S  E.             S   E       S   S
e|-10-10-10----10-(10)-10----10-10-------------10--10------10--10-|
B|--7--7--7-----7--(7)--7-----7--7--------------7---7-------7---7-|
G|--7--7--7-----7--(7)--7-----7--7--------------7---7-------7---7-|
D|--7--7--7-----7--(7)--7-----7--7--------------7---7-------7---7-|
A|--9--9--9-----9--(9)--9-----9--9--------------9---9-------9---9-|
E|-10-10-10----10-(10)-10----10-10-------------10--10------10--10-|


  Em7                                  F#7
                                       Gtr I
     E     S S  E    S S E S S E S S   H.      Q
           | |       | |   | |   | |   |
           / /       / /   / /   / /   /
      ~~~~~~
     +Q          Q        H             W
e|------------------------------------|------------||
B|------------------------------------|------------||
G|-([21])-----------------------------|------------||
D|------------------------------------|------------||
A|------------------------------------|------------||
E|------------------------------------|------------||
 |
 |    S   S S S +S  E   S E E   E E     W
e|----x---7-7-7-(7)-7---7-7-7---7-7---|------------||
B|----x---8-8-8-(8)-8---8-8-8---8-8---|------------||
G|----x---7-7-7-(7)-7---7-7-7---7-7---|------------||
D|----x---9-9-9-(9)-9---9-9-9---9-9---|------------||
A|----x---7-7-7-(7)-7---7-7-7---7-7---|------------||
E|------------------------------------|------------||


[3rd Verse]

   Bm                        F#7
   Gtr I
   E S S S S S S E S S E E   E S S S S S S Q  E S S
e|---------------7---7-----|---------9--------------|
B|-7-------7-------7-7-7-7-|-----7-------7--------7-|
G|-7---7-------7---7---7-9-|---9---9---9--------9---|
D|-9-9---9---9-------------|-8-------------8--------|
A|-9-----------------------|------------------9-----|
E|-7-----------------------|------------------------|


   Asus2                          E9/G#
   E S  S S E  S  E  S  S E S S    E S S S E S H
e|------9---7-----9--9--7-------|----7---7-----7----|
B|-----10-----10-10-10-10-----7-|----------7--------|
G|---9------------9---------9---|------7-----7------|
D|-7------7-------7-------------|-------------------|
A|------------------------7-----|-11----------------|
E|------------------------------|-------------------|


   G                           D/F#
    E S S S E S E  S S S S E    E  S S  S S S S H
e|----7---7-----7------------|-----------------------|
B|----------8--------8-------|-10-10---10-7----------|
G|------7-----7------------7-|--7----7--------7-7----|
D|---------------------7h9---|--7-----------7--------|
A|-10-------------10---------|--9--------------------|
E|---------------------------|-----------------------|


   Em7                     F#7
   E S S S E S E S S E E   E S S S S S S H
e|---7---------7-------7-|---------------9----|
B|---------8-----------8-|-----------7--------|
G|-----7-----7-----7-----|-----9-------9------|
D|-------9---------------|---8---8------------|
A|-7-------------7-------|-9-------9----------|
E|-------------------7---|--------------------|


  Bm
  Gtr IV
  E  S S  E    S  S  E          S  S   E    S      S
     | |       |  |             |  |        |      |
     / /       /  /             /  /        /      /
   Gtr V
   ~~~
   H.                                   e    S     +S
e|-----------------------------------------------------|
B|-----------------------------------------------------|
G|-7------------------------------------9----9b11r=(9)-|
D|-9-----------------------------------11---11b12r(11)-|
A|-----------------------------------------------------|
E|-----------------------------------------------------|
 | H.                                   E    S     +S
 |
 | Gtr VI
 |                               ~~~~~~~~~~~
 | Q       E.      S  S  S      +E     +Q
e|----------------14-15--------------------------------|
B|----------------15-17-17b19==(17)---(17)r------------|
G|----------------------18b19==(18)---(18)r------------|
D|-----------------------------------------------------|
A|-----------------------------------------------------|
E|-----------------------------------------------------|
 |
 | Gtr I
 | Q      +S  S S  S  E          S  S   E    S      S
e|-7------(7)-7-7--7--7----------7--7---7----7------7--|
B|-7------(7)-7-7--7--7----------7--7---7----7------7--|
G|-7------(7)-7-7--7--7----------7--7---7----7------7--|
D|-9------(9)-9-9--9--9----------9--9---9----9------9--|
A|-9------(9)-9-9--9--9----------9--9---9----9------9--|
E|-7------(7)-7-7--7--7----------7--7---7----7------7--|


  F#7
  E  S S E    S  S  E          S  S   E   S S
     | |      |  |             |  |       | |
     / /      /  /             /  /       / /
   H                 Q                 Q
e|----------------------------------------------|
B|----------------------------------------------|
G|-6-----------------6--------------------------|
D|-8-----------------8--------------------------|
A|----------------------------------------------|
E|----------------------------------------------|
 | H                 Q                 Q
 |
 |                              ~~~~~~~~~~~
 | Q      E.      S  S  S      +E     +Q
e|---------------14-14--------------------------|
B|---------------15-15-17b19==(17)---(17)r------|
G|---------------------16b18==(16)---(16)r------|
D|----------------------------------------------|
A|----------------------------------------------|
E|----------------------------------------------|
 |
 | E.   S S  E    S  H
e|-9----9-9--9----9--9--------------------------|
B|-7----7-7--7----7--7--------------------------|
G|-9----9-9--9----9--9--------------------------|
D|-8----8-8--8----8--8--------------------------|
A|-9----9-9--9----9--9--------------------------|
E|----------------------------------------------|


  Asus2
   E  S S   E     S  S       E            S   S   E    S S
      | |         |  |                    |   |        | |
      / /         /  /                    /   /        / /

    H.                                             Q
e|----------------------------------------------------------|
B|----------------------------------------------------------|
G|--6-------------------------------------------------------|
D|--7-------------------------------------------------------|
A|----------------------------------------------------------|
E|----------------------------------------------------------|
 |  H.                                             Q
 |
 |                                         ~~~~~~~~~~~~
 |  Q        E.       S       S  +S       +E      +Q
e|----------------------------------------------------------|
B|-------------------16pb17==16r(16)b17==(16)----(16)r------|
G|-------------------17pb18==17r(17)b18==(17)----(17)r------|
D|----------------------------------------------------------|
A|----------------------------------------------------------|
E|----------------------------------------------------------|
 |
 |  Q       +S   E    S       E            S   S   E    E
e|--7-------(7)--7----7-------7------------7---7---7----7---|
B|-10------(10)-10---10------10-----------10--10--10---10---|
G|--9-------(9)--9----9-------9------------9---9---9----9---|
D|--7-------(7)--7----7-------7------------7---7---7----7---|
A|----------------------------------------------------------|
E|----------------------------------------------------------|


  E9/G#
   E   S  S   E      S  S       E            S  S   E   S S
       |  |          |  |                    |  |       | |
       /  /          /  /                    /  /       / /
    ~~~
    H.                                               Q
e|------------------------------------------------------------|
B|------------------------------------------------------------|
G|--4---------------------------------------------------------|
D|--6---------------------------------------------------------|
A|------------------------------------------------------------|
E|------------------------------------------------------------|
 |  H.                                               Q
 |
 |                                            ~~~~~~~~~~~
 |  Q          E.        S       S  +S       +E     +Q
e|------------------------------------------------------------|
B|----------------------16pb17==16r(16)b17==(16)---(16)r------|
G|----------------------15pb16==15r(15)b16==(15)---(15)r------|
D|------------------------------------------------------------|
A|------------------------------------------------------------|
E|------------------------------------------------------------|
|
 |  E   S  S  +S   S  E          H
e|--7---7--7--(7)--7--7----------7----------------------------|
B|--7---7--7--(7)--7--7----------7----------------------------|
G|--7---7--7--(7)--7--7----------7----------------------------|
D|--9---9--9--(9)--9--9----------9----------------------------|
A|-11--11-11-(11)-11-11---------11----------------------------|
E|------------------------------------------------------------|


  G
   E  S S   E      S  S       E            S   S   E    S  S
      | |          |  |                    |   |        |  |
      / /          /  /                    /   /        /  /
    H.                                              Q
e|------------------------------------------------------------|
B|------------------------------------------------------------|
G|--4---------------------------------------------------------|
D|--5---------------------------------------------------------|
A|------------------------------------------------------------|
E|------------------------------------------------------------|
 |  H.                                              Q
 |
 |                                          ~~~~~~~~~~~~
 |  Q        E.        S       S  +S       +E      +Q
e|------------------------------------------------------------|
B|--------------------14pb15==14r(14)b15==(14)----(14)r-------|
G|--------------------15pb16==15r(15)b16==(15)----(15)r-------|
D|------------------------------------------------------------|
A|------------------------------------------------------------|
E|------------------------------------------------------------|
 |
 |  Q       +S   S  S  S       E            S   S   E    S  S
e|--7-------(7)--7--7--7-------7------------7---7---7----7--7-|
B|--8-------(8)--8--8--8-------8------------8---8---8----8--8-|
G|--7-------(7)--7--7--7-------7------------7---7---7----7--7-|
D|--9-------(9)--9--9--9-------9------------9---9---9----9--9-|
A|-10------(10)-10-10-10------10-----------10--10--10---10-10-|
E|------------------------------------------------------------|


  D
   E  S S   E      S  S        E             S   S   E    S  S
      | |          |  |                      |   |        |  |
      / /          /  /                      /   /        /  /
    H.                                                Q
e|---------------------------------------------------------------|
B|---------------------------------------------------------------|
G|--2------------------------------------------------------------|
D|--4-------------------------------------------------4----------|
A|----------------------------------------------------5----------|
E|---------------------------------------------------------------|
 |  H.                                                Q
 |
 |                                            ~~~~~~~~~~~~
 |  Q        E.        S        S   +S       +E      +Q
e|---------------------------------------------------------------|
B|--------------------14pb15===14r=(14)b15==(14)----(14)r--------|
G|--------------------13pb14==(13)r(13)b14==(13)----(13)r--------|
D|---------------------------------------------------------------|
A|---------------------------------------------------------------|
E|---------------------------------------------------------------|
 |
 |  Q       +S   S  S  S        E             S   S   E    S  S
e|-10------(10)-10-10-10-------10------------10--10--10---10-10--|
B|--7-------(7)--7--7--7--------7-------------7---7---7----7--7--|
G|--7-------(7)--7--7--7--------7-------------7---7---7----7--7--|
D|--7-------(7)--7--7--7--------7-------------7---7---7----7--7--|
A|--9-------(9)--9--9--9--------9-------------9---9---9----9--9--|
E|-10------(10)-10-10-10-------10------------10--10--10---10-10--|


  Em7
  E  S S  E    S  S       E       S     S E    S S
     | |       |  |               |     |      | |
     / /       /  /               /     /      / /
   H.                                      Q
e|--------------------------------------------------|
B|--------------------------------------------------|
G|--------------------------------------------------|
D|-5---------------------------------------8b9------|
A|-7---------------------------------------9b10-----|
E|--------------------------------------------------|
 | H.                                      Q
 |
 |                                 ~~~~~~
 | Q       E.      S       S  +S   Q.
e|--------------------------------------------------|
B|----------------11pb12==11r(11)-11pb12------------|
G|----------------11pb12==11r(11)-11pb12------------|
D|--------------------------------------------------|
A|--------------------------------------------------|
E|--------------------------------------------------|
 |
 | E  S S +S  S E          H
e|-7--7-7-(7)-7-7----------7------------------------|
B|-8--8-8-(8)-8-8----------8------------------------|
G|-7--7-7-(7)-7-7----------7------------------------|
D|-9--9-9-(9)-9-9----------9------------------------|
A|-7--7-7-(7)-7-7----------7------------------------|
E|--------------------------------------------------|


  F#7                F7bF#7
  Gtr I
  Q      +S E   S  S  S  E   Q
  |       | |   |  |  |  |
  /       / /   /  /  /  /
   ~~
   H.                         Q
e|------------------------------------||
B|------------------------------------||
G|------------------------------------||
D|-8----------------------------------||
A|-9----------------------------------||
E|------------------------------------||
 |
 | H                S  S  e   E  S  S
e|-----------------14-13-14-----------||
B|-----------------14-13-14-----10h12-||
G|-----------------15-14-15-/11-------||
D|------------------------------------||
A|------------------------------------||
E|------------------------------------||
 |
 | Gtr IV
 | E  S S  E   E    S  S  e   Q
e|----x-x------x----x--x--x-----------||
B|----x-x------x----x--x--x-----------||
G|----x-x------x----x--x--x-----------||
D|----x-x------x----x--x--x-----------||
A|----x-x------x----x--x--x-----------||
E|------------------------------------||


[Guitar Solo]

  Bm
  Gtr IV
    E       S S  E     S  S E S S E   S S
            | |        |  |   | |     | |
            / /        /  /   / /     / /
   Gtr III
     S     S S S  Q          H
e|-----------------------------------------|
B|-----------------------------------------|
G|-----------------------------------------|
D|-------------9---------------------------|
A|-----------9-----------------------------|
E|---7-----7-------------------------------|
 |
 |   ~~~~~~~                 ~
 |  +Q.                 S  S Q     S S S S
e|-----------------------------------------|
B|-(12)b15-------------10-12-----------7---|
G|---7-----------------------9-----7h9---7-|
D|---9-------------------------------------|
A|-----------------------------------------|
E|-----------------------------------------|
 |   W
 |
 | Gtr I
 |   Q           +S  S  S  S E S S E   S S
e|---7-----------(7)-7--7--7-7-7-7-7---7-7-|
B|---7-----------(7)-7--7--7-7-7-7-7---7-7-|
G|---7-----------(7)-7--7--7-7-7-7-7---7-7-|
D|---9-----------(9)-9--9--9-9-9-9-9---9-9-|
A|---9-----------(9)-9--9--9-9-9-9-9---9-9-|
E|---7-----------(7)-7--7--7-7-7-7-7---7-7-|


  F#7
  E    S S E        S    S  E  S S  E   S S
       | |          |    |     | |      | |
       / /          /    /     / /      / /
   S  S S S Q                H
e|--------------------------------------------|
B|--------------------------------------------|
G|--------------------------------------------|
D|--------4-----------------------------------|
A|------4-------------------------------------|
E|-2--2---------------------------------------|
 |
 | ~~~
 |          |--3---|
 | Q        S  S   S E      +Q      +Q
e|--------------------------------------------|
B|--------------------------------------------|
G|-6------------------------------------------|
D|-8--------9-11---9-7b8====(7)r====(7)\------|
A|--------------------------------------------|
E|--------------------------------------------|
 | W
 |
 | E.     S S    E        S  H
e|-9------9-9----9--------9--9----------------|
B|-7------7-7----7--------7--7----------------|
G|-9------9-9----9--------9--9----------------|
D|-8------8-8----8--------8--8----------------|
A|-9------9-9----9--------9--9----------------|
E|--------------------------------------------|


  Asus2
       E    S S     E     S  S  E    S  S    E    S S
            | |           |  |       |  |         | |
            / /           /  /       /  /         / /
        S S  S S     S   S S  S  S S  E       E    E
e|-----------------------------------------------------|
B|-----------------------------------------------------|
G|-----------------------------------------------------|
D|-------------7---------7-------7-7--7-------7----7---|
A|-----------7----------------7------------------------|
E|------5-5--------------------------------------------|
 |
 |      ~~                 ~
 | a a  S S  S S     S   S E     S S  S  S    S S  S S
e|-----------------------------------------------------|
B|------------------------------------7----------------|
G|------6-9s11-7b8---------------7h9-----7b8-----------|
D|---7--7------------9p==7-9------------------9p7--9p7-|
A|-7---------------------------------------------------|
E|-----------------------------------------------------|
 |      W
 |
 |      Q           +S   E    S  E    S  S    E    E
e|------7-----------(7)--7----7--7----7--7----7----7---|
B|-----10----------(10)-10---10-10---10-10---10---10---|
G|------9-----------(9)--9----9--9----9--9----9----9---|
D|------7-----------(7)--7----7--7----7--7----7----7---|
A|-----------------------------------------------------|
E|-----------------------------------------------------|


  E9/G#
   E           S  S   E      S S    E  S S E    S    S
               |  |          | |       | |      |    |
               /  /          / /       / /      /    /
    S       S   S  S   Q             H
e|------------------------------------------------------|
B|------------------------------------------------------|
G|-----------------9------------------------------------|
D|--------------9---------------------------------------|
A|--7-------7-------------------------------------------|
E|------------------------------------------------------|
 |
 |  ~~~~~~
 |  S      +S   S  S  +S   S  S S   +Q      S S  E
e|-------------10---------------------------7---10b12---|
B|-10b12==(10)----10r(10)p=7h10-8b9-(8)-------7---------|
G|--4---------------------------------------------------|
D|--6---------------------------------------------------|
A|------------------------------------------------------|
E|------------------------------------------------------|
|  H.                                      Q
|
 |  E           S  S  +S   S  E      H
e|--7-----------7--7--(7)--7--7------7------------------|
B|--7-----------7--7--(7)--7--7------7------------------|
G|--7-----------7--7--(7)--7--7------7------------------|
D|--9-----------9--9--(9)--9--9------9------------------|
A|-11----------11-11-(11)-11-11-----11------------------|
E|------------------------------------------------------|


  G
    E     S S   E           S  S       E      S   S   E  S  S
          | |               |  |              |   |      |  |
          / /               /  /              /   /      /  /
     S  S  S S   Q                      H
e|-------------------------------------------------------------|
B|-------------------------------------------------------------|
G|-------------------------------------------------------------|
D|-----------5-------------------------------------------------|
A|---------5---------------------------------------------------|
E|---3--3------------------------------------------------------|
 |
 |   ~~~~
 |  +E     E     S      +S   S  S      +S   S  S  +S   E  s  s
e|-(10)---10----10pb12r(10)--7-------------10------------------|
B|-----------------------------10b12==(10)----10r(10)p=8-10--8-|
G|---4---------------------------------------------------------|
D|---5---------------------------------------------------------|
A|-------------------------------------------------------------|
E|-------------------------------------------------------------|
 |   W
 |
 |   Q          +S       S   S  S       E      S   S   E  S  S
e|---7----------(7)------7---7--7-------7------7---7---7--7--7-|
B|---8----------(8)------8---8--8-------8------8---8---8--8--8-|
G|---7----------(7)------7---7--7-------7------7---7---7--7--7-|
D|---9----------(9)------9---9--9-------9------9---9---9--9--9-|
A|--10---------(10)-----10--10-10------10-----10--10--10-10-10-|
E|-------------------------------------------------------------|


  D
   E          S S   E       S  S  E    S  S  E  S  S
              | |           |  |       |  |     |  |
              / /           /  /       /  /     /  /
    S      S   S S   Q             H
e|----------------------------------------------------|
B|----------------------------------------------------|
G|---------------7------------------------------------|
D|-------------7--------------------------------------|
A|--5------5------------------------------------------|
E|----------------------------------------------------|
 |
 |  ~~~~~~
 |  S     +S   S s   S  +S   S  S  S S  Q        E
e|------------10--------------------------------------|
B|----------------------------------------------------|
G|--9b11==(9)----9---9r=(9)p=7-----7s6--7--------x----|
D|--4---------------------------7-------------4-------|
A|--------------------------------------------5-------|
E|----------------------------------------------------|
 |  H.                                        Q
 |
 |  Q               +S   S   S  S  E    S  S  E  S  S
e|-10--------------(10)-10--10-10-10---10-10-10-10-10-|
B|--7---------------(7)--7---7--7--7----7--7--7--7--7-|
G|--7---------------(7)--7---7--7--7----7--7--7--7--7-|
D|--7---------------(7)--7---7--7--7----7--7--7--7--7-|
A|--9---------------(9)--9---9--9--9----9--9--9--9--9-|
E|-10--------------(10)-10--10-10-10---10-10-10-10-10-|


  Em7
  E   S   S  E       S S E     S     S E        S S
      |   |          | |       |     |          | |
      /   /          / /       /     /          / /
   S S S   S  Q           H
e|---------------------------------------------------|
B|---------------------------------------------------|
G|---------------------------------------------------|
D|---------2-----------------------------------------|
A|-----2---------------------------------------------|
E|-0-0-----------------------------------------------|
 |
 |                        |---3---|
 | S S E      S   +S  S S E E     E     S    +S  S S
e|---------------------------------------------------|
B|-----7b8----7b8r(7)-------7b8---7b8---7b8r=(7)-----|
G|-7h9----------------9p7-9----------------------9p7-|
D|-5------------------------------------8b9----------|
A|-7------------------------------------9b10---------|
E|---------------------------------------------------|
 | H.                                   Q
 |
 | E   S   S +S    S  E   H
e|-7---7---7-(7)---7--7---7--------------------------|
B|-8---8---8-(8)---8--8---8--------------------------|
G|-7---7---7-(7)---7--7---7--------------------------|
D|-9---9---9-(9)---9--9---9--------------------------|
A|-7---7---7-(7)---7--7---7--------------------------|
E|---------------------------------------------------|


  F#7
  E       S S    E   S        S   E    S S E S S
          | |        |        |        | |   | |
          / /        /        /        / /   / /

   S    S  S S    S S S        S   H
e|------------------------------------------------|
B|------------------------------------------------|
G|------------------------------------------------|
D|-----------4------4--------------4--------------|
A|------4--4-------------------4------------------|
E|-2----------------------------------------------|
 |
 | ~~~~                            ~~~~
 |                    |----3-----|
 | S    S  S S    S S S    +S    S H
e|------------------7-----------------------------|
B|------7-10------7-------------------------------|
G|-9b11------9b11-----9b11r(9)p==7-9b11-----------|
D|-8----------------------------------------------|
A|-9----------------------------------------------|
E|------------------------------------------------|
 | H.                                       Q
 |
 | E.        S    S E          S   H
e|-9---------9----9-9----------9---9--------------|
B|-7---------7----7-7----------7---7--------------|
G|-9---------9----9-9----------9---9--------------|
D|-8---------8----8-8----------8---8--------------|
A|-9---------9----9-9----------9---9--------------|
E|------------------------------------------------|


  Bm
  E       S S     E    S    S E      S S  E           S      S
          | |          |    |        | |              |      |
          / /          /    /        / /              /      /
   S    S  S S     Q           H
e|---------------------------------------------------------------|
B|---------------------------------------------------------------|
G|---------------------------------------------------------------|
D|-----------9---------------------------------------------------|
A|---------9-----------------------------------------------------|
E|-7----7--------------------------------------------------------|
 |
 | S    S  S S     S  S S    S S S    S S  s    +T  T  S      S
e|------7-------------7------7-----------------------------------|
B|------7-10-------7-----------7------7-7------------------------|
G|-9b11------9b11-------9b11-----9b11------9b11r(9)p7--9------7--|
D|-9--------------------------------------11----------11b12r(11)-|
A|---------------------------------------------------------------|
E|---------------------------------------------------------------|
 | H.                                      e           S     +S
 |
 | Q              +S  S S    S E      S S  E           S      S
e|-7--------------(7)-7-7----7-7------7-7--7-----------7------7--|
B|-7--------------(7)-7-7----7-7------7-7--7-----------7------7--|
G|-7--------------(7)-7-7----7-7------7-7--7-----------7------7--|
D|-9--------------(9)-9-9----9-9------9-9--9-----------9------9--|
A|-9--------------(9)-9-9----9-9------9-9--9-----------9------9--|
E|-7--------------(7)-7-7----7-7------7-7--7-----------7------7--|


  F#7
  E      S S E   S S  E   S S  E  S      S
         | |     | |      | |     |      |
         / /     / /      / /     /      /
   S    S S S Q        H
e|--------------------------------------------|
B|--------------------------------------------|
G|--------------------------------------------|
D|----------4---------------------------------|
A|--------4-----------------------------------|
E|-2----2-------------------------------------|
 |
 | ~~~~
 | H                  +Q        Q
e|--------------------------------------------|
B|--------------------------------------------|
G|-9b11---------------(9)/------9--9b11r=(9)--|
D|-8---------------------------11-11b12r(11)--|
A|--------------------------------------------|
E|--------------------------------------------|
 | H.                           e  S     +S
 | 
 | E.       S S E   S  H
e|-9--------9-9-9---9--9----------------------|
B|-7--------7-7-7---7--7----------------------|
G|-9--------9-9-9---9--9----------------------|
D|-8--------8-8-8---8--8----------------------|
A|-9--------9-9-9---9--9----------------------|
E|--------------------------------------------|


  Asus2
         E      S   S    E     S      S  E      S     S  E    S  S
                |   |          |      |         |     |       |  |
                /   /          /      /         /     /       /  /
          S    S S   S    S   S S      S  S  S   E        E    E
e|-------------------------------------------------------------------|
B|-------------------------------------------------------------------|
G|-------------------------------------------------------------------|
D|-------------------7--------7-----------7--7---7--------7----7-----|
A|---------------7---------------------7-----------------------------|
E|--------5----5-----------------------------------------------------|
 |
 |  a  a  E.        +S    S   S E         S  S   E        E    S  S
e|--------------------------------------------------------7----------|
B|-------------------------------------------7--10b12-----5b7r10-(5)-|
G|-------11b14r====(11)---9--11-7b7.5--------7------------6b7r===(6)-|
D|----11--7-------------------------------9p(7)----------------------|
A|-11----------------------------------------------------------------|
E|-------------------------------------------------------------------|
 |        H.                                              E.     +S
 |
 |        Q              +S   E        S  E      S     S  E    E
e|--------7--------------(7)--7--------7--7------7-----7--7----7-----|
B|-------10-------------(10)-10-------10-10-----10----10-10---10-----|
G|--------9--------------(9)--9--------9--9------9-----9--9----9-----|
D|--------7--------------(7)--7--------7--7------7-----7--7----7-----|
A|-------------------------------------------------------------------|
E|-------------------------------------------------------------------|


  E9/G#
   E      S  S   E      S S  E  S S  E    S S
          |  |          | |     | |       | |
          /  /          / /     / /       / /
    S   S  S  S   Q           H
e|----------------------------------------------|
B|----------------------------------------------|
G|------------9---------------------------------|
D|---------9------------------------------------|
A|--7---7---------------------------------------|
E|----------------------------------------------|
 |
 |  ~~~                    ~~~~~~
 |  S   S  S  S   S   S  S S +Q      +E    E
e|--------10------------------------------------|
B|-10--12----10--12--11-10-9-(9)-----(9)/-------|
G|--4-------------------------------------14----|
D|--6-------------------------------------------|
A|----------------------------------------------|
E|----------------------------------------------|
 |  H.                                Q
 |
 |  E      S  S  +S   S  E    H
e|--7------7--7--(7)--7--7----7-----------------|
B|--7------7--7--(7)--7--7----7-----------------|
G|--7------7--7--(7)--7--7----7-----------------|
D|--9------9--9--(9)--9--9----9-----------------|
A|-11-----11-11-(11)-11-11---11-----------------|
E|----------------------------------------------|


  G
    E        S S   E          S  S  E           S  S   E      S    S
             | |              |  |              |  |          |    |
             / /              /  /              /  /          /    /
     S     S  S S   Q                H
e|---------------------------------------------------------------------|
B|---------------------------------------------------------------------|
G|---------------------------------------------------------------------|
D|--------------5------------------------------------------------------|
A|------------5--------------------------------------------------------|
E|---3-----3-----------------------------------------------------------|
 |
 |   ~~~~~~~
 |  +E        E     E          S  S  S      +S   S  S  +S   S  S    S
e|----------------------------------------------17---------------------|
B|-----------------15b15.5----17-15-17b19==(17)----17r(17)-15-17---15--|
G|-(14)b16---16-----------------------------------------6------6b7r(6)-|
D|---5-----------------------------------------------------------------|
A|---------------------------------------------------------------------|
E|---------------------------------------------------------------------|
 |   H.                                                 e      S   +S
 |
 |   Q             +S       S  S  S  E           S  S   E      S    S
e|---7-------------(7)------7--7--7--7-----------7--7---7------7----7--|
B|---8-------------(8)------8--8--8--8-----------8--8---8------8----8--|
G|---7-------------(7)------7--7--7--7-----------7--7---7------7----7--|
D|---9-------------(9)------9--9--9--9-----------9--9---9------9----9--|
A|--10------------(10)-----10-10-10-10----------10-10--10-----10---10--|
E|---------------------------------------------------------------------|


  D
   E        S  S      E          S   S   E  S  S  E  S  S
            |  |                 |   |      |  |     |  |
            /  /                 /   /      /  /     /  /
    S     S  S  S      Q                  H
e|------------------------------------------------------------|
B|------------------------------------------------------------|
G|--------------7---------------------------------------------|
D|-----------7------------------------------------------------|
A|--5-----5---------------------------------------------------|
E|------------------------------------------------------------|
 |
 |  ~~~~~                                 ~~
 |  S     S  S  S  a   S   E         +S   Q        E  S  T  T
e|-------15-16-17-17s=19--------------------------------------|
B|-17b19------------------17pb19r===(17)-15-------17----17-15-|
G|--2---------------------------------------------------------|
D|--4----------------------------------------------4----------|
A|-------------------------------------------------5----------|
E|------------------------------------------------------------|
 |  H.                                             Q
 |
 |  Q                 +S   S      S   S   E  S  S  E  S  S
e|-10----------------(10)-10-----10--10--10-10-10-10-10-10----|
B|--7-----------------(7)--7------7---7---7--7--7--7--7--7----|
G|--7-----------------(7)--7------7---7---7--7--7--7--7--7----|
D|--7-----------------(7)--7------7---7---7--7--7--7--7--7----|
A|--9-----------------(9)--9------9---9---9--9--9--9--9--9----|
E|-10----------------(10)-10-----10--10--10-10-10-10-10-10----|


  Em7
   E       S  S   E      S   S   E      S S  E          S S
           |  |          |   |          | |             | |
           /  /          /   /          / /             / /
    S     S S  S   Q              H
e|-----------------------------------------------------------|
B|-----------------------------------------------------------|
G|-----------------------------------------------------------|
D|-------------2---------------------------------------------|
A|----------2------------------------------------------------|
E|--0-----0--------------------------------------------------|
 |
 |                                ~~~~~~~
 |  E.         S  +S   S  S  +S   Q           S     +S   E
e|------------17-(17)-17-------------------------------------|
B|-17b19=================17r(17)-17pb19======17r===(17)p15---|
G|-----------------------------------------------------------|
D|--5-----------------------------------------8b9------------|
A|--7-----------------------------------------9b10-----------|
E|-----------------------------------------------------------|
 |  H.                                        Q
 |
 |  E       S  S  +S   S  E       H
e|--7-------7--7--(7)--7--7-------7--------------------------|
B|--8-------8--8--(8)--8--8-------8--------------------------|
G|--7-------7--7--(7)--7--7-------7--------------------------|
D|--9-------9--9--(9)--9--9-------9--------------------------|
A|--7-------7--7--(7)--7--7-------7--------------------------|
E|-----------------------------------------------------------|


  F#7
   E          S  S   E      S   S   E    S S  E          S S
              |  |          |   |        | |             | |
              /  /          /   /        / /             / /
    S       S  S  S   S   S  S   S   H
e|------------------------------------------------------------|
B|------------------------------------------------------------|
G|------------------------------------------------------------|
D|----------------4-------4----------4------------------------|
A|----------4--4-----------------4----------------------------|
E|--2---------------------------------------------------------|
 |
 |                                   ~~~~~
 |  S      +E     S  +S   S  S  +S   Q         S     +S   e
e|---------------17-(17)-17-----------------------------------|
B|-17b19==(17)--------------17r(17)-17b19-----17b19r(17)-15---|
G|--------------------------------------------18b19r(18)-16---|
D|--8------------------------8-------9---------8--------------|
A|--9------------------------9------10------------------------|
E|------------------------------------------------------------|
 |  Q                 E      E       Q         Q
 |
 |  E.            S   S   E      S   H
e|--9-------------9---9---9------9---9------------------------|
B|--7-------------7---7---7------7---7------------------------|
G|--9-------------9---9---9------9---9------------------------|
D|--8-------------8---8---8------8---8------------------------|
A|--9-------------9---9---9------9---9------------------------|
E|------------------------------------------------------------|


  Bm                                             F#7
   E      S S  E        S     S  E   S S E S S    E    S S E   S S E S S E S S
          | |           |     |      | |   | |         | |     | |   | |   | |
          / /           /     /      / /   / /         / /     / /   / /   / /
    S    S S S  Q                 H                S  S S S Q       H
e|----------------------------------------------|-------------------------------|
B|----------------------------------------------|-------------------------------|
G|----------------------------------------------|-------------------------------|
D|-----------9----------------------------------|---------4---------------------|
A|---------9------------------------------------|-------4-----------------------|
E|--7----7--------------------------------------|--2--2-------------------------|
 |
 |  ~~~~~                                          ~~~
 |  Q           S     S  S     S  S S E   E E      W
e|-17b19-------------10-------10----------------|-------------------------------|
B|-------------13b15----13b15-------------------|-11----------------------------|
G|--7----------------------------11s9s7---------|--6----------------------------|
D|--9-------------------------------------9-8---|--8----------------------------|
A|----------------------------------------------|-------------------------------|
E|----------------------------------------------|-------------------------------|
 |  W                                              W
 |
 |  Q          +S     S  S     S  E   S S E S S    E.     S S E   S H
e|--7----------(7)----7--7-----7--7---7-7-7-7-7-|--9------9-9-9---9-9-----------|
B|--7----------(7)----7--7-----7--7---7-7-7-7-7-|--7------7-7-7---7-7-----------|
G|--7----------(7)----7--7-----7--7---7-7-7-7-7-|--9------9-9-9---9-9-----------|
D|--9----------(9)----9--9-----9--9---9-9-9-9-9-|--8------8-8-8---8-8-----------|
A|--9----------(9)----9--9-----9--9---9-9-9-9-9-|--9------9-9-9---9-9-----------|
E|--7----------(7)----7--7-----7--7---7-7-7-7-7-|-------------------------------|


  Asus2
   E       S  S   E      S  S  E     S  S  E        S  S
           |  |          |  |        |  |           |  |
           /  /          /  /        /  /           /  /
    S     S S  S   S   S  S  S  S  S  E     E        E
e|-------------------------------------------------------------|
B|-------------------------------------------------------------|
G|-------------------------------------------------------------|
D|-------------7-------7--------7--7--7-----7--------7---------|
A|----------7----------------7---------------------------------|
E|--5-----5----------------------------------------------------|
 |
 |  ~~~~~~                ~~~~~~~~~~~~~~~~~~~~~~~~~~
 |  E.         s   s   s  s  s  S  s  s  s  T  T  S  S  S
e|-12b14======12--12--12-12-12r12-12-12-12-12p10----12-10b11---|
B|-----------------------------------------------12------------|
G|--6----------------------------------------------------------|
D|--7----------------------------------------------------------|
A|-------------------------------------------------------------|
E|-------------------------------------------------------------|
 |  W
 |
 |  Q             +S   E     S  E     S  S  E        E
e|--7-------------(7)--7-----7--7-----7--7--7--------7---------|
B|-10------------(10)-10----10-10----10-10-10-------10---------|
G|--9-------------(9)--9-----9--9-----9--9--9--------9---------|
D|--7-------------(7)--7-----7--7-----7--7--7--------7---------|
A|-------------------------------------------------------------|
E|-------------------------------------------------------------|


  E9/G#
  Gtr I
   E   S S +S  S E   H
   |   | |  |  | |   |
   /   / /  /  / /   /
    S S S S  Q        H
e|-----------------------------------------------|
B|-----------------------------------------------|
G|--------9--------------------------------------|
D|------9----------------------------------------|
A|--7-7------------------------------------------|
E|-----------------------------------------------|
 |
 |  ~~
 |  Q        S  S S S S  S  E  +S   S  E
e|-----------------------------------------------|
B|-12-------10-------------10-(10)\--------------|
G|--4----------11s9-7-9s11----------7--9b11------|
D|--6--------------------------------------------|
A|-----------------------------------------------|
E|-----------------------------------------------|
 |  W
 |
 | Gtr V
 |  H                 Q         E      S     +S
e|-----------------------------------------------|
B|------------------------------------10b12-(10)-|
G|-----------------------------------------------|
D|-----------------------------------------------|
A|-----------------------------------------------|
E|-----------------------------------------------|


  G
   Q         +S S  S S E   S S E   S S
   |          | |  | | |   | | |   | |
   /          / /  / / /   / / /   / /
    S  S  S S  Q        H
e|---------------------------------------|
B|---------------------------------------|
G|---------------------------------------|
D|----------5----------------------------|
A|--------5------------------------------|
E|--3--3---------------------------------|
 |
 |  ~~
 |  S  S  S S  S S  S S S S S S S S S S
e|--7------------------------------------|
B|-----7-10----7-------------------------|
G|--4-------9----7--9---7----------------|
D|--5-----------------9-----7------------|
A|------------------------9---9s7-5-7s9--|
E|---------------------------------------|
 |  W
 |
 |  S  S  S S  S S  S S S S S S S S S S
e|-10-----9----7-------------------------|
B|----10----8----7-10---8----------------|
G|--------------------9-----7------------|
D|------------------------9---7s5-4-5s7--|
A|---------------------------------------|
E|---------------------------------------|


  D
  Q       +S  S  S      S   E  S S E  S S
  |        |  |  |      |   |  | | |  | |
  /        /  /  /      /   /  / / /  / /
   S S S S  Q                H
e|-----------------------------------------|
B|-----------------------------------------|
G|-------7---------------------------------|
D|-----7-----------------------------------|
A|-5-5-------------------------------------|
E|-----------------------------------------|
 |
 | ~                         ~~~
 | E   S S  S  S  S     +S   Q.        E
e|-----------------------------------------|
B|-----7---10p=7---------------------------|
G|-7-----7--------9b11r=(9)--7---------7---|
D|-4---------------------------------------|
A|-5---------------------------------------|
E|-----------------------------------------|
 | W
 |
 |                           ~~~
 | E   s S  S  S  S     +S   Q.        E
e|-----7---12p10---------------------------|
B|-------7---------------------------------|
G|-7-------------12b14r(12)-11--------11---|
D|-----------------------------------------|
A|-----------------------------------------|
E|-----------------------------------------|


  Em7                              F#7
   E    S S E  S S  E S S  E S S    E   S S E    S S  E E  S S S S
   |    | | |  | |  | | |  | | |        | |      | |    |  | | | |
   /    / / /  / /  / / /  / / /        / /      / /    /  / / / /
    S  S S S Q       H               S S S S S S  S S  H
e|--------------------------------|---------------------------------||
B|--------------------------------|---------------------------------||
G|--------------------------------|---------------------------------||
D|---------2----------------------|--------4---4-------4------------||
A|-------2------------------------|----4-4----------4---------------||
E|--0--0--------------------------|--2------------------------------||
 |
 |  ~~~                              ~~
 |  Q.          E    Q      Q        Q       E    E    Q    E   E
e|--------------------------------|-------------------------9-------||
B|-------------------7------8-----|--7-----------11---12---17-------||
G|--9-----------9-----------------|---------------------------------||
D|--------------------------------|---------------------------------||
A|--------------------------------|---------------------------------||
E|--------------------------------|---------------------------------||
 |
 |  ~~~                              ~~
 |  Q.          E    Q      Q        Q       E    E    Q    E   E
e|--------------------------------|---------------------------------||
B|------------------10-----12-----|-11-----------14---15---17-------||
G|-12----------12-----------------|---------------------------------||
D|--------------------------------|---------------------------------||
A|--------------------------------|---------------------------------||
E|--------------------------------|---------------------------------||


    Bm
     Q           +S  S  S  S  E     S  S  E     S      S
     |            |  |  |  |  |     |  |  |     |      |
     /            /  /  /  /  /     /  /  /     /      /
      S   S  S  S  Q           H
e||--------------------------------------------------------|
B||o-------------------------------------------------------|
G||--------------------------------------------------------|
D||-------------9------------------------------------------|
A||o---------9---------------------------------------------|
E||---7---7------------------------------------------------|
 |
 |    S   S  S  S  S  S  S  S  S  S  S  S  s  S  e
e||--10--------10-------10-------10-------10---------------|
B||o-----12-------12-------12-------12-------12------------|
G||---7-----11-------11-------11-------11--9----11------9--|
D||---9-----------------------------------11----11b12r(11)-|
A||o-------------------------------------------------------|
E||--------------------------------------------------------|
 |    H.                                   e     S      S
 |
 |    S   S  S  S  S  S  S  S  S  S  S  S  S  S  e
e||--14--------14-------14-------14-------14---------------|
B||o-----15-------15-------15-------15-------15------------|
G||---------16-------16-------16-------16-------16---------|
D||--------------------------------------------------------|
A||o-------------------------------------------------------|
E||--------------------------------------------------------|


  F#7
   E.        S  S  E     S  H
   |         |  |  |     |  |
   /         /  /  /     /  /
    S   S  S  S  Q           H
e|-----------------------------------------------|
B|-----------------------------------------------|
G|-----------------------------------------------|
D|------------4----------------------------------|
A|---------4-------------------------------------|
E|--2---2----------------------------------------|
 |
 |                           ~~~~~
 |  S   S  S  S  S  S  S  S  Q.        E
e|--9---------9--------9----12b14----------------|
B|-----11-------11-------11----------------------|
G|--6-----11-------11---------------9--9b11r=(9)-|
D|--8------------------------------11-11b12r(11)-|
A|-----------------------------------------------|
E|-----------------------------------------------|
 |  H.                              e  S     +S
 |
 |                           ~~~~~
 |  S   S  S  S  S  S  S  S  Q.        E
e|-12--------12-------12----16b18----------------|
B|-----14-------14-------14----------------------|
G|--------15-------15----------------------------|
D|-----------------------------------------------|
A|-----------------------------------------------|
E|-----------------------------------------------|


  Asus2
   Q           +S  E     S  E     S  S  E       E
   |            |  |     |  |     |  |  |       |
   /            /  /     /  /     /  /  /       /
    S   S  S  S  S  S  S  S  S  S  E     E       E
e|---------------------------------------------------|
B|---------------------------------------------------|
G|---------------------------------------------------|
D|------------7-----7--------7--7--7-----7-------7---|
A|---------7--------------7--------------------------|
E|--5---5--------------------------------------------|
 |
 |  S   S  S  S  S  S  S  S  S  S  S  S  S    S  E
e|--9---------9--------9--------9--------9-----------|
B|-----10-------10-------10-------10-----5b7r10----5-|
G|--6------9--------9--------9--------9--6b7r====9-6-|
D|--7------------------------------------------------|
A|---------------------------------------------------|
E|---------------------------------------------------|
 |  H.                                   E.        S
 |
 |  S   S  S  S  S  S  S  S  S  S  S  S  S    S  e
e|-12--------12-------12-------12-------12-----------|
B|-----14-------14-------14-------14---------14------|
G|--------14-------14-------14-------14---------14---|
D|---------------------------------------------------|
A|---------------------------------------------------|
E|---------------------------------------------------|


  E9/G#
   E      S  S +S  S  E     H
   |      |  |  |  |  |     |
   /      /  /  /  /  /     /
    S   S  S  S  Q           H
e|--------------------------------------|
B|--------------------------------------|
G|------------9-------------------------|
D|---------9----------------------------|
A|--7---7-------------------------------|
E|--------------------------------------|
 |
 |  ~~~                      ~~~~~
 |  S   S  S  S  S  S  S  S  Q.      E
e|--7---------7--------7----10b12-------|
B|------9--------9--------9-------------|
G|--4------9--------9-------------------|
D|--6-----------------------------------|
A|--------------------------------------|
E|--------------------------------------|
 |  H.                             Q
 |
 |  S   S  S  S  S  S  S  S  Q.      E
e|-10--------10-------10----14b16-------|
B|-----12-------12-------12-------------|
G|--------13-------13-------------------|
D|--------------------------------------|
A|--------------------------------------|
E|--------------------------------------|


  G
   Q           +S  S  S  S  E     S  S  E     S    S
   |            |  |  |  |  |     |  |  |     |    |
   /            /  /  /  /  /     /  /  /     /    /
    S   S  S  S  Q           H
e|-----------------------------------------------------|
B|-----------------------------------------------------|
G|-----------------------------------------------------|
D|------------5----------------------------------------|
A|---------5-------------------------------------------|
E|--3---3----------------------------------------------|
 |
 |  ~~~
 |  S   S  S  S  S  S  S  S  S  S  S  S  S  S  E
e|--7---------7--------7--------7--------7-------------|
B|------8--------8--------8--------8-----5--8--5b7r(5)-|
G|--4------7--------7--------7--------7--6-----7----6--|
D|--5--------------------------------------------------|
A|-----------------------------------------------------|
E|-----------------------------------------------------|
 |  H.                                   e     S    S
 |
 |  S   S  S  S  S  S  S  S  S  S  S  S  S  S  e
e|-10--------10-------10-------10-------10-------------|
B|-----12-------12-------12-------12-------12----------|
G|--------12-------12-------12-------12-------12-------|
D|-----------------------------------------------------|
A|-----------------------------------------------------|
E|-----------------------------------------------------|


  D
   Q           +S  S  S  S  E    S S E S S
   |            |  |  |  |  |    | | | | |
   /            /  /  /  /  /    / / / / /
    S   S  S  S  Q           H
e|------------------------------------------|
B|------------------------------------------|
G|------------7-----------------------------|
D|---------7--------------------------------|
A|--5---5-----------------------------------|
E|------------------------------------------|
 |
 |  ~~~
 |  S   S  S  S  S  S  S  S  Q.         E
e|--5---------5--------5-----8b10-----------|
B|------7--------7--------7-----------------|
G|--2------7--------7-----------------------|
D|--4---------------------------------4-----|
A|------------------------------------5-----|
E|------------------------------------------|
 |  H.                                Q
 |
 |  S   S  S  S  S  S  S  S  Q.         E
e|-10--------10-------10----12b14-----------|
B|-----10-------10-------10-----------------|
G|--------11-------11-----------------------|
D|------------------------------------------|
A|------------------------------------------|
E|------------------------------------------|


  Em7                                   F#7
  E    S S E   S S E   S S E      S S   E     S S  E    S  S  E    E S S S S
  |    | | |   | | |   | | |      | |         | |       |  |       | | | | |
  /    / / /   / / /   / / /      / /         / /       /  /       / / / / /
   S  S S S Q       H                    S  S  S S  S  S S  S  H
e|-------------------------------------|---------------------------------------||
B|-------------------------------------|--------------------------------------o||
G|-------------------------------------|---------------------------------------||
D|--------2----------------------------|---------4-----4-------4---------------||
A|------2------------------------------|----4--4------------4-----------------o||
E|-0--0--------------------------------|-2-------------------------------------||
 |
 | S  S S S S S S S S S S S S    S e     S  S  S S  S  S S  S  Q.         E
e|-3------3-----3-----3-----3----------|-6-------6-------6-----7b9-------------||
B|----5-----5-----5-----5--------5-----|----7-------7-------7-----------------o||
G|------4-----4-----4-----4--------4---|-------6-------6--------------6--------||
D|-5------------------------8b9--------|-8---------------8-----9------8--------||
A|-7------------------------9b10-------|-9---------------9----10--------------o||
E|-------------------------------------|---------------------------------------||
 | H.                       Q            Q          E    E     Q      Q
 |
 | S  S S S S S S S S S S S S    S e     S  S  S S  S  S S  S  Q.         E
e|-7------7-----7-----7-----7----------|-9-------9-------9----12b14------------||
B|----8-----8-----8-----8--------8-----|---11------11------11-----------------o||
G|------9-----9-----9-----9--------9---|------11------11-----------------------||
D|-------------------------------------|---------------------------------------||
A|-------------------------------------|--------------------------------------o||
E|-------------------------------------|---------------------------------------||


Duration Legend
---------------
W - whole; H - half; Q - quarter; E - 8th; S - 16th; T - 32nd; X - 64th; a - acciaccatura
+ - note tied to previous; . - note dotted; .. - note double dotted
Uncapitalized letters represent notes that are staccato (1/2 duration)
Irregular groupings are notated above the duration line
Duration letters will always appear directly above the note/fret number it represents the
duration for.  Duration letters with no fret number below them represent rests.  Multi-
bar rests are notated in the form Wxn, where n is the number of bars to rest for.  Low
melody durations appear below the staff

Tablature Legend
----------------
 h   - hammer-on
 p   - pull-off
 b   - bend
 pb  - pre-bend
 r   - bend release (if no number after the r, then release immediately)
 /\  - slide into or out of (from/to "nowhere")
 s   - legato slide
 S   - shift slide
  - natural harmonic
[n]  - artificial harmonic
n(n) - tapped harmonic
 ~   - vibrato
 tr  - trill
 T   - tap
 TP  - trem. picking
 PM  - palm muting
\n/  - tremolo bar dip; n = amount to dip
 \n  - tremolo bar down
 n/  - tremolo bar up
/n\  - tremolo bar inverted dip
 =   - hold bend; also acts as connecting device for hammers/pulls
 <>  - volume swell (louder/softer)
 x   - on rhythm slash represents muted slash
 o   - on rhythm slash represents single note slash

Misc Legend
-----------
 |  - bar
||  - double bar
||o - repeat start
o|| - repeat end
*|  - double bar (ending)
 :  - bar (freetime)
 $  - Segno
 &  - Coda
Tempo markers -  = BPM(8/16=s8/s16), where s8 = swing 8ths, s16 = swing 16ths


***************************************************************************************
* Generated using Power Tab Editor by Brad Larsen - http://powertab.guitarnetwork.org *
***************************************************************************************
Suggest correction new What's this?
You can suggest a correction to this tab. Community and Mods will review your correction and vote to approve or reject it.
comments
print report bad tab
23 comments total. Showing first comments.
0 reply
PiddleMeGuitar 16 wrote on September 1 2005, 12:00 am

awesome

0 reply
jpmay 12 wrote on October 12 2005, 05:07 pm

beautiful and awesome !!!!

+3 reply
thegreatindoors 209 wrote on March 28 2006, 11:40 am

good god this song is hard to play

guest
You may want to rate the tab now too:
select rating
Please do not post tabs as comments. Select "correction" instead!