Oops, an error
Loading. Please wait.

I Cant Tell You Why Tab

version 1
version 1

Solo

Whole song

Interactive

20,657 views 54 this week
no commentswrite comment
1 2 3 4 5
x 4
add to favorites
launch autoscroll
font size
0
reset
how to read this tab
guitar tuner
backing track
0:00
0:00
×
Best way to learn
"I Cant Tell You Why"
Autoscroll
slow
fast
+/-
esc
set tempo
stop
Eagles - I can't tell you why  solo
Tabs by Alberto Del Roscio - GuitarraG
e|---------------|---------------|-----------------------|--------------|
B|---------------|---------------|-----------12----------|--------------|
G|---------7-11-7|---------7-11-7|---------7----9-7---6-2|-7-9-7---6-14-|
D|-----7-9-------|-----7-9-------|-----7-9----------9----|-------9------|
A|-7-9-----------|-7-9-----------|-7-9-------------------|--------------|
E|---------------|---------------|-----------------------|--------------|

e|----------10-----------------10----------|
B|-------------10-12-12--10-12----10-12-12-|
G|---7-7-14--------------------------------|
D|-9---------------------------------------|
A|-----------------------------------------|
E|-----------------------------------------|

e|-------10-----------------12-12-12-------|
B|-10-12----10-12-12--10-12----------10----|
G|-----------------------------------------|
D|-----------------------------------------|
A|-----------------------------------------|
E|-----------------------------------------|

e|-------10-----------------10----------|
B|-10-12----10-12-12--10-12----10-12-12-|
G|--------------------------------------|
D|--------------------------------------|
A|--------------------------------------|
E|--------------------------------------|

e|-------10-10----10-10----10-10-----------|
B|-10-12-------10-------10-------10-7-12-10|
G|-----------------------------------------|
D|-----------------------------------------|
A|-----------------------------------------|
E|-----------------------------------------|

e|-----------------------------|----------------------|
B|-----------------------------|----------------------|
G|-7-9-7---6-2----7-9-7---6-14-|---7-9-7---(x4 times)-|
D|-------9--------------9------|-9--------------------|
A|-----------------------------|----------------------|
E|-----------------------------|----------------------|
Suggest correction
comments
print report bad tab
guest
You may want to rate the tab now too:
select rating
Wanna post a correction for this tab? Suggest correction