Oops, an error
Loading. Please wait.

I Cant Tell You Why chords

version 8
version 8

Whole song

Interactive

by Eagles
6,367 views 75 this week
2 commentsread comments
1 2 3 4 5
x 30
add to favorites
×
Save as Personal and add changes to this tab that will be seen only by you. Learn more ›
×
You can save this tab as Personal to edit and correct it or add notes. All changes will be seen only by you. Learn more »
launch autoscroll
font size
0
reset
transpose
0
reset
simplify chords
display chords
guitar tuner
backing track
0:00
0:00
edit
Autoscroll
slow
fast
+/-
esc
set tempo
stop
Author
Difficulty
intermediate
Strumming
There is no strumming pattern for this song yet. and get +5 IQ
Submitted by cyberwookie 01-20-2016

[Intro Riff:]     
Bm        A/B       x 4

Dmaj7                        Gmaj7
Look at us baby up all night tearing our love apart
Dmaj7                                           Gmaj7             F#7sus4  F#7
Aren't we the same two people who lived through years in the dark?
Bm                  A/B       Gmaj7                    F#7sus4   F#7
Every time I try to walk away something makes me turn around and stay
Bm                   A/B     
And I can't tell you why.

Second Riff:    Bm        A 

Dmaj7                                 Gmaj7
When we get crazy it just ain't right girl I get lonely too
Dmaj7                                       Gmaj7         F#7sus4  F#7 
You don't have to worry just hold on tight              'cause I love     you.
Bm                        A/B       Gmaj7                     F#7sus4 F#7
Nothing's wrong as far as I can see we make it harder than it has to be
    Bm               A/B
And I can't tell you why no baby

Gmaj7            F#7sus4 F#7
I can't tell you why.....
Gmaj7            F#m7
I can't tell you why 

Third Riff:     Bm        A       x 2

[Solo]
                Dmaj7    Gmaj7
                Dmaj7    Gmaj7   F#7sus4  F#7

Bm                  A/B       Gmaj7                    F#7sus4   F#7
Every time I try to walk away something makes me turn around and stay
Bm                   A/B     
And I can't tell you why. No no baby,
Gmaj7            F#7sus4 F#7
I can't tell you why.....
Gmaj7            F#m7
I can't tell you why 
Gmaj7            F#m7
I can't tell you why   no no no.

Final Solo:     Gmaj7   F#m7     Repeat and Fade 


Chords

Dmaj7           x57675
Gmaj7           3x4432
F#7sus4         242422
F#7             242322
Bm              x24432
A/B             x2222x
F#m7            2x222x (or A/F#)



Intro Riff 
                Bm Bm    A                    Bm Bm    A
E|-----------|--2--2-----0--|--------------|--2--2-----0--|
B|-----------|--3--3-----2--|--------------|--3--3-----2--|
G|-----------|--4--4-----2--|--------------|--4--4-----2--|
D|-----------|--------------|--------------|--------------|
A|-----2-----|--2--2-----0--|--------2-----|--2--2-----0--|
E|-----------|--------------|-----2--------|--------------|

                   Bm Bm    A                    Bm Bm    A
E|--------------|--2--2-----0--|--------------|--2--2-----0--|
B|--------------|--3--3-----2--|--------------|--3--3-----2--|
G|--------------|--4--4-----2--|--------------|--4--4-----2--|
D|--------------|--------------|--------------|--------------|
A|--2--2-----2--|--2--2-----0--|--2--2-----2--|--2--2-----0--|
E|--------2-----|--------------|--------2-----|--------------|

Second Riff
                            Bm A
E|-----------------|--------2--0--|
B|-----------------|--------3--2--|
G|-----------------|--------4--2--|
D|--------0--2-----|--------------|
A|--2--4--------2--|--------2--0--|
E|-----------------|--------------|

Third Riff
                      Bm Bm    A                       Bm Bm    A
E|-----------------|--2--2-----0--|-----------------|--2--2-----0--|--------------|
B|-----------------|--3--3-----2--|-----------------|--3--3-----2--|--------------|
G|-----------------|--4--4-----2--|-----------------|--4--4-----2--|--------------|
D|--------0--2-----|--------------|--------0--2-----|--------------|--------0--2--|
A|--2--4--------2--|--2--2-----0--|--2--4--------2--|--2--2-----0--|--2--4--------|
E|-----------------|--------------|-----------------|--------------|--------------|

            
            
Suggest correction
Creating personal tab
Creating personal tab
You can edit any tab online and save it as your Personal.

You can edit, replace or remove any tab part or add personal notes – all changes will be seen only by you.

Personal tabs can be accessed anytime from any device, even offline.
Learn more »
comments
print report bad tab
2 comments total.
0 reply
mmzydel 10 Jul 23, 2016 04:38 AM

Nice job. Only comment is I think the intro, 2nd and 3rd riffs are Bm to A/B.

0 reply
cyberwookie 102 Oct 21, 2016 08:25 PM

mmzydel...yes...you're correct and I've corrected. :-)

guest
You may want to rate the tab now too:
select rating
Wanna post a correction for this tab? Suggest correction