Oops, an error
Loading. Please wait.

In The City Tab

version 1
version 1

Whole song

Interactive

16,572 views 6 this week
7 commentsread comments
1 2 3 4 5
excellent!
x 15
add to favorites
launch autoscroll
font size
0
reset
how to read this tab
guitar tuner
Tab Pro tools
  • play this tab
  • loop segment
  • change instrument
  • show fretboard
  • metronome
×
Best way to learn
"In The City"
Autoscroll
slow
fast
+/-
esc
set tempo
stop
Contributor
Tabbers playing skills
advanced +
             ************************************
             *           THE EAGLES             *
             *           In the City            *
             ************************************
Chords:
  A   D    A  E
e|----2---------|
B|-2--3----2----|
G|-2--2----2--1-|
D|-2--0----2--2-|
A|-0-------0--2-|
E|------------0-|

(VERSE 1)
A D                  A      E
   Somewhere out on that horizon
A D                A     E
   Out beyond the neon lights
A D                         A      E
   I know there must be something better

     But there's nowhere else in sight
e|---2-------------4------------------|
B|------3-------------5-----------2---|
G|---------2-------------4--------2---|
D|-0------------------------------2---|
A|--------------------------------0---|
E|------------------------------------|

E D              A      D
   It's survival in the city
A D                   A        E
   When you live from day to day
A D                       A         E
   See the streets don't have much pity.

     When you're down that's where you'll
e|---2-----------------4---------|
B|------3-----------------5------|
G|---------2-----------------4---|
D|-0-----------------------------|
A|-------------------------------|
E|-------------------------------|

(CHORUS)

  Stay. Ooh  ooh.  In the city.  0h oh.
e|------------------------------------|
B|-2----------3-----------5---------3-|
G|-2----------2-----------4---------2-|
D|-2----------4-----------6---------4-|
A|-0----------------------------------|
E|------------------------------------|
 Ooh,   oh,    In the city.     Uh, huh.
e|-------------------------------------|
B|-2-------3----------5-------------3--|
G|-2-------2----------4-------------2--|
D|-2-------4----------6-------------4--|
A|-0-----------------------------------|
E|-------------------------------------|

 (SOLO 1 W/ SLIDE)
e|------------------------------|
B|-17~---15\10~---17\12~--2---7-|
G|------------------------2---7-|
D|------------------------------|
A|------------------------------|
E|------------------------------|

e|---17--17-17---------------12-|
B|-17--17------17\---15\--------|
G|-----------------------/13----|
D|------------------------------|
A|------------------------------|
E|------------------------------|

e|---17--17-17--------------------------------|
B|-17--17-----17--19\----19-------------------|
G|-------------------/18-------/13--/9----2/7-|
D|----------------------------------------2/7-|
A|--------------------------------------------|
E|--------------------------------------------|

(VERSE 2) 

D                A       E
 I was born here in the city
A D                 A        E
   With my back against the wall
A D                              A     E
   Nothing grows and life ain't very pretty

     No one's there to catch you when you fall
e|---2-----------------4-------------------|
B|------3------------------5-------------2-|
G|---------2-------------------4---------2-|
D|-0-------------------------------------2-|
A|---------------------------------------0-|
E|-----------------------------------------|

E D                  A      E
   Somewhere out on that horizon
A D                   A    D
   Far away from the neon sky
A D                          A      E
   I know there must be something better

     And I can't stay another
e|---2-------------4-----------|
B|-----3-------------5---------|
G|-------2-------------4-------|
D|-0---------------------------|
A|-----------------------------|
E|-----------------------------|

(CHORUS 2) 

  Night. 0oh  oh.  In the city.  Oh oh
e|------------------------------------|
B|-2----------3-----------5---------3-|
G|-2----------2-----------4---------2-|
D|-2----------4-----------6---------4-|
A|-0----------------------------------|
E|------------------------------------|
  
  Ooh, oh,         In the city.     Uh, huh.
e|------------------------------------|
B|-2----------3-----------5---------3-|
G|-2----------2-----------4---------2-|
D|-2----------4-----------6---------4-|
A|-0----------------------------------|
E|------------------------------------|

(SOLO 2 W/ SLIDE) 
                 In the city...
e|-------17~-------19\17-----------|
B|-15\12----------------/-17~------|
G|---------------------------------|
D|---------------------------------|
A|---------------------------------|
E|---------------------------------|
                                 In the city...
e|-------------------------------------------|
B|----------------17-----------------17------|
G|-----------/18------18--------/18------18--|
D|-19\17-------------------------------------|
A|-------19----------------------------------|
E|-------------------------------------------|

e|-------------------------------|
B|-15-------17----19-------------|
G|----16\18-----------16\18--14--|
D|-------------------------------|
A|-------------------------------|
E|-------------------------------|
     In the city...
e|-7~-----9~-----10~---------17--17-17---17~-|
B|----------------------15\17--17-----17-----|
G|-------------------------------------------|
D|-------------------------------------------|
A|-------------------------------------------|
E|-------------------------------------------|

e|-19\17-------|
B|-------/17~--|
G|-------------|
D|-------------|
A|-------------|
E|-------------|
comments
print report bad tab
7 comments total. Showing first comments.
0 reply
LedDaveZeppelin wrote on December 4 2007, 06:41 pm

Awesome tab! great song to..i just learned it!

0 reply
marshmellow666 wrote on March 28 2008, 11:20 pm

you taught me how to play "in the city"!

great tab

0 reply
JI-HALL wrote on April 9 2008, 03:12 pm

great tab

I want to post or [tab]
guest
You may want to rate the tab now too:
select rating
Please do not post tabs as comments. Select "correction" instead!