Oops, an error
Loading. Please wait.
We have an official Lyin Eyes tab made by UG professional guitarists. Check out the tab »
×
by Eagles
7,769 views 9 this week
3 commentsread comments
1 2 3 4 5
x 6
add to favorites
×
Save as Personal and add changes to this tab that will be seen only by you. Learn more ›
×
You can save this tab as Personal to edit and correct it or add notes. All changes will be seen only by you. Learn more »
launch autoscroll
font size
0
reset
guitar tuner
backing track
0:00
0:00
edit
Autoscroll
slow
fast
+/-
esc
set tempo
stop
Difficulty
[INTRO]
  G        Gmaj7    C        C        Am       D        G        G
G:0--0----|0--00---|----0--0|----0---|--------|----2---|0--0----|0--0----|
D:----0--0|--------|--------|--------|----2---|0--0----|----0---|----0---|
A:--------|--------|3--3----|3--3--3-|0--0----|--------|--------|--------|
E:--------|--------|--------|--------|--------|--------|--------|--------|

[VERSE]
G               Gmaj7            C       C
City girls just seem to find out early 
Am          Am                D        D
How to open doors with just a smile.
  G                Gmaj7             C         C
A rich old man and she won't have to worry
       Am              C              G        G
she'll dress up all in lace and go in style

  G        Gmaj7    C        C        Am       Am       D        D
G:0--00---|0--00---|----0---|----0---|--------|--------|----2---|--------|
D:--------|--------|--------|--------|----2---|----2---|0--0----|0--02-4-|
A:--------|--------|3--3----|3--3--3-|0--0----|0--0----|--------|--------|
E:--------|--------|--------|--------|--------|--------|--------|--------|
  G        Gmaj7    C        C        Am       C        G        G
G:0--00---|0--00---|----0---|----0---|--------|----0---|0--0----|0--0----|
D:--------|--------|--------|--------|----2---|--------|----0---|----0---|
A:--------|--------|3--3----|3--3--3-|0--0----|3--3----|--------|--------|
E:--------|--------|--------|--------|--------|--------|--------|--------|

[VERSE]
G               Gmaj7              C         C
Late at night a big old house gets lonely
  Am                  Am             D        D
I guess every form of refuge has its price
       G                   Gmaj7             C      C
And it breaks her heart to think her love is only
      Am            C                G      C  D
Given to a man with hands as cold as ice.

  G        Gmaj7    C        C        Am       Am       D        D
G:0--00---|0--00---|----0---|----0---|--------|--------|----2---|--------|
D:--------|--------|--------|--------|----2---|----2---|0--0----|0--02-4-|
A:--------|--------|3--3----|3--3--3-|0--0----|0--0--3-|--------|--------|
E:--------|--------|--------|--------|--------|--------|--------|--------|
  G        Gmaj7    C        C        Am       C        G        C   D
G:0--00---|0--00---|----0---|----0---|--------|----0---|0--0----|--------|
D:--------|--------|--------|--------|----2---|--------|----0---|----0---|
A:--------|--------|3--3----|3--3--3-|0--0----|3--3----|--------|3--3----|
E:--------|--------|--------|--------|--------|--------|--------|--------|

[VERSE]
       G                  Gmaj7          C        C
So she tells him she must go out for the evening
   Am             Am                   D      D
To comfort an old friend who's feeling down
    G                    Gmaj7          C          C
But he knows where she's goin' as she's leavin'
      Am              C                G
She's headed for that cheatin' side of town

  G        Gmaj7    C        C        Am       Am       D        D
G:0--0----|0--0--0-|----0---|----0---|--------|2--2----|----2---|--------|
D:----0---|----0---|--------|--------|----2---|----2---|0--0----|0--02-4-|
A:--------|--------|3--3----|3--3--3-|0--0----|------3-|--------|--------|
E:--------|--------|--------|--------|--------|--------|--------|--------|
  G        Gmaj7    C        C        Am       C        G        G    
G:0--0----|0--0----|----0---|----0---|--------|----0---|0--0---0|0~~~~~~~|
D:----0---|----0---|--------|--------|----2---|--------|----0---|--------|
A:--------|--------|3--3----|3--3--3-|0--0----|3--3----|--------|--------|
E:--------|--------|--------|--------|--------|--------|--------|--------|

[CHORUS]
          G     G            G    G          Em     Bm             Am      D
You can't hide    your lyin' eyes   and your smile    is a thin disguise

  G        G        G        G        Em       Bm       Am       D
G:0--00---|0--00---|0--00---|0--00---|--------|--------|--------|----2---|
D:--------|--------|--------|------4-|2--2----|----4---|----2---|0--0--0-|
A:--------|--------|--------|--------|----2---|2--2----|0--0----|--------|
E:--------|--------|--------|--------|--------|--------|--------|--------|

             G     G7          C   A       Am              D                G
I thought by now     you'd realize   there ain't no way to hide those lyin' eyes

  G        G7       C        A        Am       D        (BRIDGE)
G:0--00---|0--00---|----0---|--------|--------|----2---|
D:--------|--------|--------|----2---|----2---|0--0----|
A:--------|--------|3--3--3-|0--0----|0--0----|--------|
E:--------|--------|--------|--------|--------|--------|

[BRIDGE]
  G        Gmaj7    C        C        Am       D        G        G    
G:0--0----|0--0----|----0---|----0---|--------|----2---|0--0----|0--0----|
D:----0---|----0---|--------|--------|----2---|0--0----|----0---|----0---|
A:--------|--------|3--3----|3--3--3-|0--0----|--------|--------|--------|
E:--------|--------|--------|--------|--------|--------|--------|--------|

[VERSE]
       G             Gmaj7         C        C
On the other side of town a boy is waiting
     Am              Am                  D        D
With stormy eyes and dreams no-one could steal
    G                      Gmaj7       C        C
She drives on throught the night anticipating
          Am                 C               G       C  D
'Cause he makes her feel the way she used to feel

  G        Gmaj7    C        C        Am       Am       D        D
G:0--00---|0--00---|----0---|----0---|2--2----|2--2--24|7--75--5|4--42--2|
D:--------|--------|--------|--------|----2---|----2---|--------|--------|
A:--------|--------|3--3----|3--3--3-|--------|--------|--------|--------|
E:--------|--------|--------|--------|--------|--------|--------|--------|

  G        Gmaj7    C        C        Am       C        G        C   D
G:0--0----|0--0----|----0---|----0---|--------|----0---|0--0----|--------|
D:----0---|----0---|--------|--------|----2---|--------|----0---|----0---|
A:--------|--------|3--3----|3--3--3-|0--0----|3--3--3-|--------|3--3----|
E:--------|--------|--------|--------|--------|--------|--------|--------|

[VERSE]
    G             Gmaj7            C        C
She rushes to his arms they fall together
    Am                Am         D       D
She whispers that its only for a while
    G                        Gmaj7          C      C
She says that soon she'll be coming back forever
    Am             C                 G
She pulls away and leaves him with a smile

  G        Gmaj7    C        C        Am       Am       D        D
G:0--0----|0--0----|----0---|----0---|--------|--------|----2---|--------|
D:----0---|----0---|--------|--------|----2---|----2---|0--0----|0--02-4-|
A:--------|--------|3--3----|3--3--3-|0--0----|0--0--3-|--------|--------|
E:--------|--------|--------|--------|--------|--------|--------|--------|

  G        Gmaj7    C        C        Am       C        G        G    
G:0--0----|0--0----|----0---|----0---|--------|----0---|0--0---0|0~~~~~~~|
D:----0---|----0---|--------|--------|----2---|--------|----0---|--------|
A:--------|--------|3--3----|3--3--3-|0--0----|3--3--3-|--------|--------|
E:--------|--------|--------|--------|--------|--------|--------|--------|

[CHORUS]
          G     G            G    G          Em     Bm             Am      D
You can't hide    your lyin' eyes   and your smile    is a thin disguise

  G        G        G        G        Em       Bm       Am       D
G:0--00---|0--00---|0--00---|0--00---|--------|--------|--------|----2---|
D:--------|--------|--------|------4-|2--2----|----4---|----2---|0--0--0-|
A:--------|--------|--------|--------|----2---|2--2----|0--0----|--------|
E:--------|--------|--------|--------|--------|--------|--------|--------|

             G     G7          C   A       Am              D                G
I thought by now     you'd realize   there ain't no way to hide those lyin' eyes

  G        G7       C        A        Am       D        (BRIDGE)
G:0--00---|0--00---|----0---|--------|--------|----2---|
D:--------|--------|--------|----2---|----2---|0--0----|
A:--------|--------|3--3--3-|0--0----|0--0----|--------|
E:--------|--------|--------|--------|--------|--------|

[BRIDGE]
  G        Gmaj7    C        C        Am       D        G        G    
G:0--0----|0--0----|----0---|----0---|--------|----2---|0--0----|0--0----|
D:----0---|----0---|--------|--------|----2---|0--0----|----0---|----0---|
A:--------|--------|3--3----|3--3--3-|0--0----|--------|--------|--------|
E:--------|--------|--------|--------|--------|--------|--------|--------|

[VERSE]
    G           Gmaj7           C            C
She gets up and pours herself a strong one
    Am                Am              D       D
And stares out at the stars up in the sky
 G                  Gmaj7      C           C
Another night, it's gonna be a long one
    Am                  C                 G     C  D              
She draws the shade and hangs her head to cry

  G        Gmaj7    C        C        Am       Am       D        D
G:0--00---|0--00---|----0---|----0---|--------|2--2----|----2---|--------|
D:--------|--------|--------|--------|----2---|----2---|0--0----|0--02-4-|
A:--------|--------|3--3----|3--3--3-|0--0----|------3-|--------|--------|
E:--------|--------|--------|--------|--------|--------|--------|--------|

  G        Gmaj7    C        C        Am       C        G        C   D
G:0--00---|0--00---|----0---|----0---|--------|----0---|0--0----|--------|
D:--------|--------|--------|--------|----2---|--------|----0---|----0---|
A:--------|--------|3--3----|3--3--3-|0--0----|3--3--3-|--------|3--3----|
E:--------|--------|--------|--------|--------|--------|--------|--------|

[VERSE]
        G              Gmaj7         C       C
And she wonders how it ever got this crazy
    Am             Am              D         D
She thinks about a boy she knew in school
    G                Gmaj7            C      C
Did she get tired or did she just get lazy
      Am               C                 G        G
She's so far gone, she feels just like a fool

  G        Gmaj7    C        C        Am       Am       D        D
G:0--00---|0--0----|----0---|----0---|--------|--------|----2---|--------|
D:--------|--------|--------|--------|----2---|----2---|0--0----|0--02-4-|
A:--------|------2-|3--3----|3--3--3-|0--0----|0--0----|--------|--------|
E:--------|----3---|--------|--------|--------|--------|--------|--------|

  G        Gmaj7    C        C        Am       C        G        G   
G:0--0----|0--0----|----0---|----0---|--------|----0---|0--0----|0--0----|
D:----0---|----0---|--------|--------|----2---|--------|----0---|----0---|
A:--------|--------|3--3----|3--3--3-|0--0----|3--3----|--------|--------|
E:--------|--------|--------|--------|--------|--------|--------|--------|

[VERSE]
G              Gmaj7              C              C
My, oh my, you sure know how to arrange things
    Am           Am       D            D
You set it up so well, so carefully
         G              Gmaj7           C              C
Ain't it funny how your new life didn't change things?
       Am                 C                G      G
You're still the same old girl you used to be

  G        Gmaj7    C        C        Am       Am       D        D
G:0--00---|0--00---|----0---|----0---|--------|--------|----2---|--------|
D:--------|--------|--------|--------|----2---|----2---|0--0----|0--02-4-|
A:--------|--------|3--3----|3--3--3-|0--0----|0--0--3-|--------|--------|
E:--------|--------|--------|--------|--------|--------|--------|--------|

  G        Gmaj7    C        C        Am       C        G        G    
G:0--00---|0--00---|----0---|----0---|--------|----0---|0--0---0|0~~~~~~~|
D:--------|--------|--------|--------|----2---|--------|----0---|--------|
A:--------|--------|3--3----|3--3--3-|0--0----|3--3----|--------|--------|
E:--------|--------|--------|--------|--------|--------|--------|--------|

[CHORUS]
          G     G            G    G          Em     Bm             Am      D
You can't hide    your lyin' eyes   and your smile    is a thin disguise

  G        G        G        G        Em       Bm       Am       D
G:0--00---|0--00---|0--00---|0--00---|--------|--------|--------|----2---|
D:--------|--------|--------|------4-|2--2----|----4---|----2---|0--0--0-|
A:--------|--------|--------|--------|----2---|2--2----|0--0----|--------|
E:--------|--------|--------|--------|--------|--------|--------|--------|

             G     G7          C   A       Am              D                G
I thought by now     you'd realize   there ain't no way to hide those lyin' eyes

  G        G7       C        A        Am       D        G        G        (CODA)
G:0--00---|0--00---|----0---|--------|--------|----2---|0--0----|0--0----|
D:--------|--------|--------|----2---|----2---|0--0--0-|----0---|----0-0-|
A:--------|--------|3--3--3-|0--0----|0--0----|--------|--------|--------|
E:--------|--------|--------|--------|--------|--------|--------|--------|

[CODA]
      Am             C               G      Gmaj7
There aint no way to hide your lyin' eyes
Am             C               G      Gmaj7
Honey you cant hide your lyin' eyes

  Am       D        G        Gmaj7    Am       D        G        Gmaj7
G:--------|----2---|0--0----|0--0----|--------|----2---|0--0----|0--0----|
D:----2---|0--0--0-|----0---|----0-0-|----2---|0--0--0-|----0---|----0---|
A:0--0----|--------|--------|--------|0--0----|--------|--------|--------|
E:--------|--------|--------|--------|--------|--------|--------|--------|

  Am       D        G        G
G:--------|----2---|0~~~~~~~~~~~~~~~~|
D:----2---|0--0----|--------|--------|
A:0--0----|--------|--------|--------|
E:--------|--------|--------|--------|

Tabbed by Michael Oxner (moxner@nbnet.nb.ca) with the help of other tabs from this 
site for the correct chords.

            
            
Suggest correction
Creating personal tab
Creating personal tab
You can edit any tab online and save it as your Personal.

You can edit, replace or remove any tab part or add personal notes – all changes will be seen only by you.

Personal tabs can be accessed anytime from any device, even offline.
Learn more »
comments
print report bad tab
3 comments total.
0 reply
Guktron 10 Aug 01, 2016 07:48 PM

bad ass dude, wouldn't change a thing

0 reply
fritz41 10 Jul 18, 2017 11:21 PM

wow!! thats a lot of work u did there, Thanks! i haven't played it yet, but you couldn't have laid it out any better with the words & all, for a rookie like me to follow, thanks again, I recognize the time involved in this

0 reply
fritz41 10 Jul 18, 2017 11:26 PM

wow!! thats a lot of work u did there, Thanks! i haven't played it yet, but you couldn't have laid it out any better with the words & all, for a rookie like me to follow, thanks again, I recognize the time involved in this

guest
Wanna post a correction for this tab? Suggest correction