Oops, an error
Loading. Please wait.

One Of These Nights Tab

version 1
version 1

Whole song

Interactive

52,849 views 105 this week
5 commentsread comments
1 2 3 4 5
x 13
add to favorites
launch autoscroll
font size
0
reset
how to read this tab
guitar tuner
Autoscroll
slow
fast
+/-
esc
set tempo
stop
Help us to improve Ultimate-Guitar.com Take our survey!
×
e|--------------12----|
B|--------------12----|
G|--------------12----|
D|---4s5--------^-----|
A|-------5s7----------| THAT IS THE GUITAR PART THAT IS PLAYED DURING THE BASS LINE
E|-0------------------|
   ^^^^^^^


THIS IS THE BASS LINE
e|-7---|
b|-7h8-|
g|-7h9-|
d|-7h9-|
a|-7---|
e|-----|

^^^ that is the distortited part do 4 times

 then do
e|-7-7-7-7----|
B|--7-7-7-7---|
G|--7-7-7-7---|
D|--9-9-9-9---|
A|--9-9-9-9---|
E|--7-7-7-7---|


  ONE OF THESE NIGHTS one of these
e|-12-12-12-12-12-12-12-12---|
B|-12-12-12-12-12-12-12-12---|
G|-12-12-12-12-12-12-12-12---|
D|-14-14-14-14-14-14-14-14---|
A|---------------------------|
E|---------------------------|


CRAZY OLD NIGHTS
e|-7-7-7-7-7-7-7-7-7-7-7-7-7--|
b|-7-7-7-7-7-7-8-8-8-8-8-8-8--|
g|-7-7-7-7-7-7-9--9--9--9--9--|
d|-9-9-9-9-9-9-10-10-10-10-10-|
a|----------------------------|
e|----------------------------|

e|--5-5-5-5-5-5-5-5-5---|
B|--5-5-5-5-5-5-5-5-5---|
G|--5-5-5-5-5-5-5-5-5---|
D|--7-7-7-7-7-7-7-7-7---|
A|----------------------|
E|----------------------|

e|--2-2-2-2-2-2-2-2-2-2---|
B|--3-3-3-3-3-3-3-3-3-3---|
G|--4-4-4-4-4-4-4-4-4-4---|
D|--4-4-4-4-4-4-4-4-4-4---|
A|------------------------|
E|------------------------|

e|--8-8-8-8-8-8-8-8----|
B|--8-8-8-8-8-8-8-8----|
G|--9-9-9-9-9-9-9-9----|
D|-10-10-10-10-10-10---|
A|---------------------|
E|---------------------|

 YOU JUST HAVE TO LISTEN THE THE SONG AND PUT THE CHORDS IN THE RIGHT ORDER AND IF U
CANT DO THAT U MUST SUCK AT GUITAR BECAUSE ITS NOT THAT HARD BELIVE ME
tabedd by james pugrad and corbin ellis and jared kinder...........and thats it



************************************

| h  Hammer-on
| s  Slide

************************************
Suggest correction
comments
print report bad tab
5 comments total. Showing first comments.
+4 reply
stella the fell 10 Jan 07, 2009 05:06 AM

what a pile of crap.

+3 reply
mikecappa 53 Nov 25, 2010 03:22 PM

This tab is too disorginized. the intro riff is definately bass, i may be wrong but i think the only guitar in the intro is the slide to 'E' that's mixed in with the bass part. other than that it was too disorginized for me to take the time and figure out what chords go where. pretty much a waste of time is what i'm saying.

0 reply
DJDallasJones 72 Apr 07, 2011 06:49 PM

it's not the kindest or most written out of tabs but it is correct

guest
You may want to rate the tab now too:
select rating
Wanna post a correction for this tab? Suggest correction