Oops, an error
Loading. Please wait.

Peaceful Easy Feeling Tab

version 1
version 1

Solo

Whole song

Interactive

61,337 views 138 this week
2 commentsread comments
1 2 3 4 5
excellent!
x 12
add to favorites
launch autoscroll
font size
0
reset
how to read this tab
guitar tuner
Tab Pro tools
  • play this tab
  • loop segment
  • change instrument
  • show fretboard
  • metronome
×
Best way to learn
"Peaceful Easy Feeling"
Autoscroll
slow
fast
+/-
esc
set tempo
stop
Contributor
-------------------------------------------------------------------------------
                             Peaceful Easy Feeling - Eagles
-------------------------------------------------------------------------------
Tabbed by: Blompcube (Matt Warren)
Email: blompburster@hotmail.com
Info: This is the second part of the guitar solo, where it gets loud. Sorry I couldn't
out the first bit, it's too low in the mix, and I think it's also double tracked.
Each line of tab is 2 bars (8 beats).
Sounds best on a slightly distorted electric guitar.

Tuning: Standard tuning (EADGBe)

e|---12-------12--------12---------------------------------------------------|
B|---12^(14)--12^(14)---12^(14)^r-p10----10----------------------------------|
G|------------------------------------11-------------------------------------|
D|---------------------------------------------------------------------------|
A|---------------------------------------------------------------------------|
E|---------------------------------------------------------------------------|

e|--------12----9------------------------------------------------------------|
B|-----------------12-9------------------9h10-12-----------------------------|
G|--11/13----13----------11p9---9p8h9-11-------------------------------------|
D|---------------------------11----------------------------------------------|
A|---------------------------------------------------------------------------|
E|---------------------------------------------------------------------------|

e|------------------------------12-------------------------------------------|
B|-12^(14)-(14)--(14)(14)^r^(14)--(14)-(14)-(14)^r-10------------------------|
G|---------------------------------------------------------------------------|
D|---------------------------------------------------------------------------|
A|---------------------------------------------------------------------------|
E|---------------------------------------------------------------------------|

e|------------------------------14-------------------------------------------|
B|-14^(16)-(16)--(16)(16)^r^(16)--(16)-(16)-(16)^r-12------------------------|
G|---------------------------------------------------------------------------|
D|---------------------------------------------------------------------------|
A|---------------------------------------------------------------------------|
E|---------------------------------------------------------------------------|

e|-16^(17)--(17)^r--12--------12---------------------------------------------|
B|---------------------15^(17)--(17)-(17)^r-15-------------------------------|
G|---------------------------------------------------------------------------|
D|---------------------------------------------------------------------------|
A|---------------------------------------------------------------------------|
E|---------------------------------------------------------------------------|

e|--------12----------------------12-----------------------------------------|
B|-15^(17)--(17)-(17)^r-12--------12-----------------------------------------|
G|-------------------------14^(16)--(16)-14^(16)-(16)^r-p12------------------|
D|---------------------------------------------------------14~~~~~~----------|
A|---------------------------------------------------------------------------|
E|---------------------------------------------------------------------------|

This guitar solo is pretty easy once you've figured out the timing and everything. I
this just by listening to it on the song once or twice.
there is a very quiet slightly higher melody played on a different guitar that seems to
hidden "behind" this on the record, I might try to work that out later.

| /  slide up
| \  slide down
| h  hammer-on
| p  pull-off
| ~  vibrato
| +  harmonic
| x  Mute note
| ^()String bend (number in brackets means bend until you get the note of that fret.
| () Pre-bend string, brackets work the same as on string bend.
| ^r Release the string bend
===============================================================================
Feedback & suggestions welcome, I'm no expert at writing tabs so sorry about any
i might have made.
comments
print report bad tab
2 comments total.
0 reply
mopar68 wrote on December 13 2010, 03:49 pm

Nice one man.

0 reply
allensue wrote on May 3 2014, 05:05 pm

Perfect. :)

Cheers

I want to post or [tab]
guest
You may want to rate the tab now too:
select rating
Please do not post tabs as comments. Select "correction" instead!