Oops, an error
Loading. Please wait.

Peaceful Easy Feeling Tab

version 2
version 2

Solo

Whole song

Interactive

46 views 6 this week
no commentswrite comment
1 2 3 4 5
3 more votes to show rating
add to favorites
launch autoscroll
font size
0
reset
how to read this tab
guitar tuner
Autoscroll
slow
fast
+/-
esc
set tempo
stop
Help us to improve Ultimate-Guitar.com Take our survey!
×
Author
Difficulty
intermediate
Eagles
Peaceful Easy Feeling
Lead guitar by Don Felder

Lead guitar part that is played by Don Felder. It starts in the song at 1:55. Starts off pretty low but gets
louder at around 2:30.

I could not find any tabs for the entire lead guitar solo. The only ones that were on the internet were tabs
that started when the solo got loud. this is the Entire solo, not just the second half.

e|--9-7--------------0---0-0----------------------------------------------------|
B|------9\7-7----------0-----0-----------------------5-----4-----5--5/7---------|
G|------------9\8-6--------------------------------4---6/7---4/6----6/8---------|
D|-----------------------------------------4---4/6------------------------------|
A|-----------------------------------4-6-7---7----------------------------------|
E|-------------------------------6/7--------------------------------------------|

e|--------------9-7---------------------7--------------------------7------------|
B|------7---7b9-----7b9r7---7---7---7b9---9r7----5h7--7p5-5---7h9----7----------|
G|--8/9---9---------------9---9---9-----------9--6----6---6---8-----------------|
D|------------------------------------------------------------------------------|
A|------------------------------------------------------------------------------|
E|------------------------------------------------------------------------------|

e|-------------------7-----------5-----------7---------5-----------7------------|
B|--7h9-9-9p7-7--7h9-9-9p7--7--5---5/7--7h9--9--9p7--5---5/7---7h9-9-9p7--------|
G|--9---9-9---9--9-----9----9--6---6/8--9-------9\8--6---6/8---9-----9\8--------|
D|------------------------------------------------------------------------------|
A|------------------------------------------------------------------------------|
E|------------------------------------------------------------------------------|

e|----5------------7---------------------11-------------------------------------|
B|--5-------5----7---7----7-----------12----12--17-----17-----17----------------|
G|--6---6/7---6--------------------11-----------16b18--16b18--16b18r16-14----14-|
D|----------------------9---9--/12----------------------------------------16----|
A|------------------------------------------------------------------------------|
E|------------------------------------------------------------------------------|

e|--------12---9---------------------------------7----------9----9-----------9--|
B|-----------9---9-12---------------------7-9-10-----12b14-(14)-(14)-pb14r12----|
G|--11b13-------------11b13r11p9----9\8/9---------------------------------------|
D|-------------------------------11---------------------------------------------|
A|------------------------------------------------------------------------------|
E|------------------------------------------------------------------------------|

e|-12-9-9---------------------11---11--------11-14-11-11------------16b17-------|
B|--------pb14r12-10---14b16-(16)-(16)-16r14-------------pb16r14-12-------------|
G|------------------------------------------------------------------------------|
D|------------------------------------------------------------------------------|
A|------------------------------------------------------------------------------|
E|------------------------------------------------------------------------------|

e|--pb17r16-12---------12----------------12----------12-------------------------|
B|--------------15b17-(17)-15b17--15b17-(17)--15b17-(17)-17-pb17r15--12---------|
G|----------------------------------------------------------------------14b16---|
D|------------------------------------------------------------------------------|
A|------------------------------------------------------------------------------|
E|------------------------------------------------------------------------------|

e|------------------------------------------------------------------------------|
B|--12--------------------------------------------------------------------------|
G|-(16)-14b16--14b16--pb16r14p12------------------------------------------------|
D|-------------------------------14---------------------------------------------|
A|------------------------------------------------------------------------------|
E|------------------------------------------------------------------------------|
 
 
************************************

| /    Slide up
| \    Slide down
| h    Hammer-on
| p    Pull-off
| r    Release
| b    Bend
| (n)  Ghost note
| pb   Pre-bend

************************************
Suggest correction
Give kudos to tab author, rate the tab!
1 2 3 4 5
comments
print report bad tab
guest
You may want to rate the tab now too:
select rating
Wanna post a correction for this tab? Suggest correction