Oops, an error
Loading. Please wait.
We have Chord Pro version of Peaceful Easy Feeling.
It's the closest thing you can get to the original song and it has interactive parts. Check out the tab »
×
by Eagles
8,914 views 69 this week
no commentswrite comment
1 2 3 4 5
x 9
add to favorites
×
Save as Personal and add changes to this tab that will be seen only by you. Learn more ›
×
You can save this tab as Personal to edit and correct it or add notes. All changes will be seen only by you. Learn more »
launch autoscroll
font size
0
reset
guitar tuner
backing track
0:00
0:00
edit
Autoscroll
slow
fast
+/-
esc
set tempo
stop
Author
Difficulty
Song improved from previous version... please rate it... Thanks !

Tempo : 143
Tuning : Standard

Intro :
G|----------------------------------------------------|-
D|----------------------------------------------------|-
A|-7-7---7-7---7-7---7-7-----7-7---7-7---7-7---7-7----|-
E|----7-----7-----7-----7--5----7-----7-----7-----7-9-|-



Verse 1 (00:14):
     «I like the way...»
G|---------------------------------------------------------|-
D|------7-7-----------7-7------------7-7-----------9-9-----|-
A|-7-7-----7--9--7-7-----7--9--7-7------7---9-9-------9----|-
E|----7-------------7-------------7-------------7--------9-|-



     «and I want to sleep with you...»
G|---------------------------------------------------------|-
D|------7-7-----------7-7------------7-7-----------9-9---9-|-
A|-7-7-----7--9--7-7-----7--9--7-7------7---9-9-------9----|-
E|----7-------------7-------------7-------------7----------|-



Chorus (00:40): 
     «Coz I got a peaceful easy feeling...»
G|---------------------------------------------------------|-
D|-7-7---7-7--------------------7-7---7-7--9-5----9-7-6----|-
A|----7-----7--9--7-7--7-7---9-----7-----7-----9-9------9-7|-
E|------------------7----7---------------------------------|-



 «Coz I'm already standing...»     Bridge
G|---------------------------|-----------------------------|-
D|---------------------------|-----------------------------|-
A|-7-7---9-9---7-7---9-9-----|-7-7---9-9---7-7---9-9------7|-
E|----7-----7-----7-----7--9-|----7-----7-----7-----7---9--|-



Verse 2 (01:08):
    «And I found out...»
G|---------------------------------------------------------|-
D|------7-7-----------7-7------------7-7-----------9-9-----|-
A|-7-7-----7--9--7-7-----7--9--7-7------7---9-9--------9---|-
E|----7-------------7-------------7-------------7--------9-|-



     «All she can take...»
G|---------------------------------------------------------|-
D|------7-7-----------7-7------------7-7-----------9-9---9-|-
A|-7-7-----7--9--7-7-----7--9--7-7------7---9-9-------9----|-
E|----7-------------7-------------7-------------7----------|-



Chorus (01:33):
      «and I got a peaceful easy feeling...»
G|---------------------------------------------------------|-
D|-7-7---7-7--------------------7-7---7-7--9-5----9-7-6----|-
A|----7-----7--9--7-7--7-7---9-----7-----7-----9-9------9-7|-
E|-------------------7----7--------------------------------|-



 «Coz I'm already standing...» + Bridge
G|---------------------------|-----------------------------|-
D|---------------------------|-----------------------------|-
A|-7-7---9-9---7-7---9-9-----|-7-7---9-9---7-7---9-9------7|-
E|----7-----7-----7-----7--9-|----7-----7-----7-----7---9--|-
     


INSTRUMENTAL : (02:01)
G|---------------------------------------------------------|-
D|------7-7-----------7-7------------7-7-----------9-9-----|-
A|-7-7-----7--9--7-7-----7--9--7-7------7---9-9--------9---|-
E|----7-------------7-------------7-------------7--------9-|-

     
G|---------------------------------------------------------|-
D|------7-7-----------7-7------------7-7-----------9-9---9-|-
A|-7-7-----7--9--7-7-----7--9--7-7------7---9-9-------9----|-
E|----7-------------7-------------7-------------7----------|-


G|---------------------------------------------------------|-
D|-7-7---7-7--------------------7-7---7-7--9-5----9-7-6----|-
A|----7-----7--9--7-7--7-7---9-----7-----7-----9-9------9-7|-
E|-------------------7----7--------------------------------|-
        
                                   
G|---------------------------|-
D|---------------------------|-
A|-7-7---9-9---7-7---9-9-----|-
E|----7-----7-----7-----7--9-|-



Verse 3 (02:50):
     «I get this feeling...»
G|-----------------------------------------|-
D|------7-7-----------7-7-----------9-9----|-
A|-7-7-----7--9--7-7-----7---9-9-------9---|-
E|----7-------------7------------7-------9-|-

     «This voice keeps whispering...»
G|---------------------------------------------------------|-
D|------7-7-----------7-7------------7-7-----------9-9---9-|-
A|-7-7-----7--9--7-7-----7--9--7-7------7---9-9-------9----|-
E|----7-------------7-------------7-------------7----------|-



Chorus (03:14) :
«and I got a peaceful easy feeling...»
G|---------------------------------------------------------|-
D|-7-7---7-7--------------------7-7---7-7--9-5----9-7-6----|-
A|----7-----7--9--7-7--7-7---9-----7-----7-----9-9------9-7|-
E|-------------------7----7--------------------------------|-


«Coz I'm already standing...»     «I'm already standing...»
G|---------------------------|-----------------------------|-
D|---------------------------|-----------------------------|-
A|-7-7---9-9---7-7---9-9-----|-7-7---9-9---7-7---9-9------7|-
E|----7-----7-----7-----7----|----7-----7-----7-----7---9--|-


 «Yes, I'm already standing...» «on the ground...» 
G|------------------------------|-
D|------------------------------|-
A|-7-7---9-9---7-7---9-9------7-|-
E|----7-----7-----7-----7---9---|-



                    «wooooh wooooh...»
G|---------------||----------------------------|-
D|---------------||-9-7-6----------------------|-
A|-7-7----9-9----||-------9---9-7--------------|- repeat x3
E|----7------7---||----------------------------|-

End : 04:13
Suggest correction
Creating personal tab
Creating personal tab
You can edit any tab online and save it as your Personal.

You can edit, replace or remove any tab part or add personal notes – all changes will be seen only by you.

Personal tabs can be accessed anytime from any device, even offline.
Learn more »
comments
print report bad tab
guest
You may want to rate the tab now too:
select rating
Wanna post a correction for this tab? Suggest correction