Oops, an error
Loading. Please wait.

Take It Easy Bass Tab

version 3
version 3

Whole song

  • This tab is different since I was able to find thi... Show more

Interactive

139 views 6 this week
no commentswrite comment
1 2 3 4 5
2 more votes to show rating
add to favorites
launch autoscroll
font size
0
reset
guitar tuner
Autoscroll
slow
fast
+/-
esc
set tempo
stop
Help us to improve Ultimate-Guitar.com Take our survey!
×
Author
Difficulty
intermediate
About this tab version
This tab is different since I was able to find this from a book that had this song tabbed out in bass. Was this info helpful? Yes No
This is the authors own work. Only use for studying purposes. I got this out of an Eagles book that had this
tab. I hope you enjoy.


Take It Easy
Eagles

~ means to hold the note


[Intro]

G|----------12-12-12~-------------------------------------/12~------------------------|
D|-----------------------------5~---5-5-5~---5-5-5~---5-5---------0-5--5-5--5-5--5-5--|
A|------------------------------------------------------------------------------------|
E|------------------------------------------------------------------------------------|


[Verse]

G|--------------------------------------------------------------------------------------|
D|--0-5--5-5--5-5--5-5--0-5-------------------------------------------------------------|
A|---------------------------5-5--0-3--3-3---------2-5--2-5--5-5--2-3--3-3-----------0--|
E|------------------------------------------0-3--3---------------------------3--3-3-----|


[Chorus]

G|-------------------------------------------------------------------------------------------------|
D|--------------------------2-5--------------------------------------------------------------------|
A|--7--7-7---7--7-7--0-3--3------5--------------------3--3-3--0-7--7-7--0-7--7-7--7\3--3-3-3-------|
E|---------------------------------3--3-3--0-5--5-5-------------------------------------------0-3--|

G|--------------------------------------------------------------------------------------------------------|
D|-----------------2-5-----------------------------------0-5--5-5--0-5--5-5---3---5--5-5--0-5--5-5---3----|
A|----2-5--2-3--3------5--------2-5--2---------0-3--3-3---------------------5---5------------------5---5--|
E|--3----------------------3--3--------5--5-5-------------------------------------------------------------|


[Verse 2]

G|-------------------------------------------------------------------------------------------|
D|--5--5-5--0-5--5-5--0-5--------------2-5---------------------4-7---------2-5---------------|
A|-------------------------0-5--0-3--3------5------2-5--0-5--5------0-3--3------5---------0--|
E|--------------------------------------------3--3--------------------------------3--3-3-----|


[Chorus 2]

G|-------------------------------------------------------------------------------------------------------|
D|--------------------------------------------------------------------------------------2-5--------------|
A|--7--7-7--0-5--5-5---3--3-3--------2-5--2---------0-3--3-3--0-7--7-7---7--7-7--0-3--3------5------2-5--|
E|------------------------------3--3--------5--5-5---------------------------------------------3--3------|

G|--------------------------------------------------------------------------------------|
D|---------2-5----------------------------------0-5--5-5--0-5--5-5----------------------|
A|--2-3--3------5------2-5--2---------0-3--3-3---------------------5--------------------|
E|----------------3--3--------5--5-5----------------------------------------------------|


[Guitar Solo]
G|--------------------------------------------------------------------------------------------|
D|--5--5-5--0-5--5-5--0-5------------------------------------4-7---------2-5------------------|
A|-------------------------0-5--0-3--3-3---------2-5--2-5--5------0-3--3------5------2-5-5-0--|
E|----------------------------------------0-3--3--------------------------------3--3----------|

G|---------------------------------------------------------------------------------------|
D|---------------------------2-5---------------------------------------------------------|
A|--7--7-7--0-5--5-5--0-3--3------5------2-5-2-----------0-3--3-3--0-7--7-7--0-7--5--5---|
E|----------------------------------3--3-------3-5--5-5----------------------------------|


[Verse 3]

G|----------------------------------------------------------------------------------|
D|--5--5-5--0-5--5-5--0-5-------------------------------------------2-5-------------|
A|-------------------------0-5---------------------0-5--5-5--0-3--3------5----------|
E|------------------------------5--5-5--0-3--3-3---------------------------3--3-3---|


[Chorus 3]

G|----------------------------------------------------------------------------------------------------------|
D|------------------------------------------------------------------------------------2-5-------------------|
A|--7--7-7--0-7--7-7---3--3-3--------2-5--2---------0-3--3-3--0-7--7-7---7--7-7--3--3------5------2-5-2-3---|
E|------------------------------3--3--------5--5-5-------------------------------------------3--3-----------|

G|----------------------------------------------|
D|----2-5----------------------------------5~---|
A|--3------5------2-5--2---------0-3--3-3-------|
E|-----------3--3--------5--5-5-----------------|


[Outro]

G|-----------------------------------------------------------------------------------------|
D|-----------------------------------------------------------------------------------------|
A|--3--3-3---3--3-3--------------------------3--3-3---3--3-3----------------------0-1-2-3--|
E|------------------0-1-2-3--3-3---3--3--3-------------------0-1-2-3--3-3---3--3-----------|

G|------------------------------------------------------------------------------------|
D|------------------------------------------------------------------------------------|
A|--3-3--3------------------------------0-1-2-3--3-3--3-------------------------------|
E|---------0-0-1-1-2-2-3--3-3--3-3--3-3-----------------0-0-1-1-2-2-3--3-3--3-3--3-3--|

G|---------------------------------------------------------------------------|
D|---------------------------------------------------------------------------|
A|--0-1-2-3--3-3--3-3--3-3--3/7~---------------------------------------------|
E|---------------------------------------------------------------------------|


************************************
| /   Slide up
| \   Slide down
************************************


If you have any questions, email me at burtyoung2012@gmail.com

Suggest correction
Give kudos to tab author, rate the tab!
1 2 3 4 5
comments
print report bad tab
guest
You may want to rate the tab now too:
select rating
Wanna post a correction for this tab? Suggest correction