Oops, an error
Loading. Please wait.

Take It To The Limit Bass Tab

version 1
version 1

Whole song

Interactive

11,724 views 24 this week
1 commentread comment
1 2 3 4 5
x 5
add to favorites
launch autoscroll
font size
0
reset
guitar tuner
Autoscroll
slow
fast
+/-
esc
set tempo
stop
Help us to improve Ultimate-Guitar.com Take our survey!
×
Author
Difficulty
novice
[Intro]
G|---|---------|---------|---|-----------|---|
D|---|-----1-2-|---2-1---|---|-------1---|-2-|
A|-2-|-2-4-----|-2-----4-|-2-|---2-4-----|---|
E|---|---------|---------|---|-2-------2-|---|

[Verse 1]
G|-----|------------|---------|---|-------------|---------|---|-----|---1-|---1---1-|---|---|-----|-----|----|
D|-----|-----1----2-|---2-1---|---|-------1---2-|---2-1---|---|-----|-----|-1---1---|---|-4-|-4-2-|-2-1-|-1--|
A|---2-|-2-4---2----|-2-----4-|-2-|---2-4---2---|-2-----4-|-2-|-2-3-|-2---|---------|-4-|---|-----|-----|---4|
E|-2---|------------|---------|---|-2-----------|---------|---|-----|-----|---------|---|---|-----|-----|----|

[Bridge]
G|-----|-----------|---------|---|-------------|---------|---|---|-----|-----|-------|-----|-----|-----|
D|-----|-----1---2-|---2-1---|---|-------1---2-|---2-----|---|---|-1-2-|---2-|-----4-|-4-4-|---4-|-4-4-|
A|---2-|-2-4---2---|-2-----4-|-2-|---2-4---2---|-2-----2-|-4-|-4-|-----|-2---|-4-----|-----|-4---|-----|
E|-2---|-----------|---------|---|-2-----------|-----2---|---|---|-----|-----|-------|-----|-----|-----|

[Chorus]
G|---|---------|---|---------|---|---|---|
D|-2-|-------1-|-2-|-2-----1-|-2-|-4-|---|
A|---|---2-4---|---|---2-4---|---|---|-2-|
E|---|-2-------|---|---------|---|---|---|

[Instrumental]
G|---------|---------|---|-----------|---|
D|-----1-2-|---2-1---|---|-------1---|-2-|
A|-2-4-----|-2-----4-|-2-|---2-4-----|---|
E|---------|---------|---|-2-------2-|---|

[Verse 2]
G|-----|------------|---------|---|-------------|---------|---|-----|---1-|---1---1-|---|---|-----|-----|----|
D|-----|-----1----2-|---2-1---|---|-------1---2-|---2-1---|---|-----|-----|-1---1---|---|-4-|-4-2-|-2-1-|-1--|
A|---2-|-2-4---2----|-2-----4-|-2-|---2-4---2---|-2-----4-|-2-|-2-3-|-2---|---------|-4-|---|-----|-----|---4|
E|-2---|------------|---------|---|-2-----------|---------|---|-----|-----|---------|---|---|-----|-----|----|

[Bridge]
G|-----|-----------|---------|---|-------------|---------|---|---|-----|-----|-------|-----|-----|-----|
D|-----|-----1---2-|---2-1---|---|-------1---2-|---2-----|---|---|-1-2-|---2-|-----4-|-4-4-|---4-|-4-4-|
A|---2-|-2-4---2---|-2-----4-|-2-|---2-4---2---|-2-----2-|-4-|-4-|-----|-2---|-4-----|-----|-4---|-----|
E|-2---|-----------|---------|---|-2-----------|-----2---|---|---|-----|-----|-------|-----|-----|-----|

[Chorus]
G|---|---------|---|---------|---|---|-1-|---1---1-|-----|
D|-2-|-------1-|-2-|-2-----1-|-2-|-4-|---|-1---1---|-6-4-|
A|---|---2-4---|---|---2-4---|---|---|---|---------|-----|
E|---|-2-------|---|---------|---|---|---|---------|-----|

G|---|-----|-------|---|-----|-------|---|---|-------------------------------------|
D|-2-|-6-4-|-4-6-4-|-2-|---4-|-4-6-4-|-2-|-4-|-------------------------------1-1-1-|
A|---|-----|-------|---|-4---|-------|---|---|-2-2-2-2-2-2-2-2-2-2-2-2-4-4-4-------|
E|---|-----|-------|---|-----|-------|---|---|-------------------------------------|

G|---/-6-4-|---/-8-6-|     |-------------------------------------|
D|-2-------|-4-------|     |-------------------------------1-1-1-|
A|---------|---------|     |-2-2-2-2-2-2-2-2-2-2-2-2-4-4-4-------|
E|---------|---------|(3x) |-------------------------------------|

G|---|---------|-8-6-4-|    |-------------------------------------|
D|-6-|-8-6-----|-------|    |-------------------------------1-1-1-|
A|---|-----6-7-|-------|    |-2-2-2-2-2-2-2-2-2-2-2-2-4-4-4-------|
E|---|---------|-------| 3x |-------------------------------------|

G|---|---------|-8-6-4-|    |-------------------------------------|
D|-6-|-8-6-----|-------|    |-------------------------------1-1-1-|
A|---|-----6-7-|-------|    |-2-2-2-2-2-2-2-2-2-2-2-2-4-4-4-------|
E|---|---------|-------| 3x |-------------------------------------|

G|---/-6-4-|---/-8-6-|    |-------------------------------------|
D|-2-------|-4-------|    |-------------------------------1-1-1-|
A|---------|---------|    |-2-2-2-2-2-2-2-2-2-2-2-2-4-4-4-------|
E|---------|---------| 3x |-------------------------------------|

G|---/-6-4---6-4---|---/-13-11-|    |-------------------------------------|
D|-2-------6-----6-|-4---------|    |-------------------------------1-1-1-|
A|-----------------|-----------|    |-2-2-2-2-2-2-2-2-2-2-2-2-4-4-4-------|
E|-----------------|-----------|(3x)|-------------------------------------|

G|---/-6-4---6-4---|---/-13-11-|
D|-2-------6-----6-|-4---------| 
A|-----------------|-----------| 
E|-----------------|-----------| (2x)


************************************

| /  Slide up

************************************
Suggest correction
comments
print report bad tab
1 comment total.
0 reply
dolson128 2,197 Aug 15, 2014 11:50 AM

Very nice! Thanks for the tab

guest
You may want to rate the tab now too:
select rating
Wanna post a correction for this tab? Suggest correction