Oops, an error
Loading. Please wait.

Tequila Sunrise Tab

version 2
version 2

Whole song

Interactive

18,793 views 33 this week
1 commentread comment
1 2 3 4 5
1 last vote to show rating
add to favorites
launch autoscroll
font size
0
reset
how to read this tab
guitar tuner
Autoscroll
slow
fast
+/-
esc
set tempo
stop
Help us to improve Ultimate-Guitar.com Take our survey!
×
Author
Difficulty
intermediate
(See chord diagrams before playing the song.)

[Intro]

   G
e|-3------------|
B|-0------------|
G|-0------------|
D|-0-0h2p0h2p0--|
A|-x------------|
E|-3------------|(x3)

2 guitars.

 Guitar 1 (G1)
   G           G               D         G           D           G
e|-3-----------3-------------------------3-----------------------3-|
B|-0-----------0-------------------------0-----------------------0-|
G|-0-----------0-------------------------0-----------------------0-|
D|-0-0h2p0h2p0-0-0h2p0h2p0-----0h2p0h2p0-0-0h2p0h2p0-4-0h2p0h2p0-0-|
A|-x-----------x-------------------------x-----------------------2-|
E|-3-----------3-------------------------3-----------------------3-|

 Guitar 2 (G2)
e|-----------------------------------------------------------------|
B|-10>(12)=>10-8-10--12\13-----------------------------------------|
G|-------------------------9-7--7-7---11->(12)===(12)>(14)>12--5-4-|
D|-----------------------------------------------------------------|
A|-----------------------------------------------------------------|
E|-----------------------------------------------------------------|

 G*                                   D
 It's an-oth-er te-qui-la sun-rise,
e|----------------------------------2-------|
B|----------------------------------3-------|
G|----------------------------------2-------|
D|----------------------------------0-------|
A|--------------------------------0---------|
E|----------------------------------x-------|

D                            Am     D7
star-in' slow-ly  'cross the sky.

 Said good-bye. G                    Gmaj7*      C   G      G*
e|--------------3--------------------------------------|
B|--------------0--------------------------------------|
G|--------------0------------12>(14)>12----------5---4-| (G2)
D|--------------0-0h2p0h2p0--------------4-0h2p0h2p0---| (G1)
A|--------------x--------------------------------------|
E|--------------3--------------------------------------|

 G*                                D
 He was just a hired hand.
e|---------------------------------------------|
B|---------------------------------------------|
G|------------------------9>(11)>9p7-9>11)====-|
D|---------------------------------------------|
A|---------------------------------------------|
E|---------------------------------------------|

 D                                    Am
 Work-in' on the dreams he plan-ed to try.
e|--------------------------------------------------2-|
B|--------------------------------------------------1-|
G|-----------------------------------------9>(11)>9-2-|
D|--------------------------------------------------x-|
A|--------------------------------------------------x-|
E|--------------------------------------------------x-|

 D7*            G       Gmaj7         G/E         Gmaj7     Em
 The days go by.
e|------------------------------------------------------------|
B|------------------------------------------------------------|
G|--------------11>(12)>11-9>(11)>9-7-9>(11)>9-7-9>(11)>9-7-4-|
D|------------------------------------------------------------|
A|------------------------------------------------------------|
E|------------------------------------------------------------|
Em                   C        Em
Ev'ry night when the sun goes down.
Em             C              Em
Just an-oth-er lone-ly boy in town.
Am                      D7  G/D       G*
And she's out run-nin' 'ro-o-ound.

 G*                                      D
 She wasn't just an-oth-er wo-man,               and I couldn't
e|--------------------------------------------------------------|
B|--------------------------------------------------------------|
G|--------------------------------(11)>9-7vvvvv-----------------|
D|--------------------------------------------------------------|
A|--------------------------------------------------------------|
E|--------------------------------------------------------------|

                   Am             D7
 keep from com-in' on.
e|---------5>(7)>5-----12-10---------12-10-----------------------|
B|---------5>(7)>5-5---------10/8-10-------12--10/8-10->(12)==---|
G|---------5>(7)>5-----------------------------------------------|
D|---------------------------------------------------------------|
A|---------------------------------------------------------------|
E|---------------------------------------------------------------|

              G*
 It's been so long.
e|----------------------15--12-10---------------------|
B|--------------------------------12-10/8-10>(12)==---|
G|----------------------------------------------------|
D|----------------------------------------------------|
A|----------------------------------------------------|
E|----------------------------------------------------|

 G*                                       D
 Oh, and it's a hol-low feel-in'.
e|--------------15---------------------------------------|
B|------------------------------(12)>10p8-10>(12)>10vvvv-|
G|-------------------------------------------------------|
D|-------------------------------------------------------|
A|-------------------------------------------------------|
E|-------------------------------------------------------|

 D                                 Am         D7
 When it comes down to deal-in'    friends,
e|-----------------------------------------------|
B|---------------------10>(12)>10-10vvvvv--------|
G|-----------------------------------------------|
D|-----------------------------------------------|
A|-----------------------------------------------|
E|-----------------------------------------------|

D7        G*
It nev-er ends.


   C*     D* G*                D*                          Am7
e|-3-3-3--5--7--7-7--8--7-5----5--5-5-5----5----5-5--5-------|
B|-5-5-5--7--8--8-8--8--8-7-8--7--7-7-7----5h7--7-7--7-9---8-|
G|--------------------------9--------------------------10--9-|
D|-----------------------------------------------------------|
A|-----------------------------------------------------------|
E|-----------------------------------------------------------|

             D7*             G*               G*            Am*
e|--------------------------------------------------------------|
B|-8-8-8--8-----------------------------------------------------|
G|-9-9-9--9--7---7-7-7-9-11>(12)--7-7-7-9-11>(12)=====(12)>(14)-|
D|--------------------------------------------------------------|
A|--------------------------------------------------------------|
E|--------------------------------------------------------------|

 Am             D                    Bm              E
 Take an-oth-er shot of cour-age,    won-der why the right words
e|--------------------------------7-----------------------------|
B|--------------------------------7-----------------------------|
G|--------------------------------------------------------------|
D|--------------------------------------------------------------|
A|--------------------------------------------------------------|
E|--------------------------------------------------------------|

        Am     B                   Em7    A                 G*
 nev-er come,         you just get numb.
e|------0---------------------------------9--12-9------------------|
B|------5-----------------------------------------12-10-10->(12)---|
G|------5----------------------------------------------------------|
D|-----------------------------------------------------------------|
A|-----------------------------------------------------------------|
E|-----------------------------------------------------------------|

 G*                                            D
 It's an-oth-er te-qui-la sun-rise.
e|---------------------------------------------------|
B|---------------------------------------------------|
G|---------------------------------(11)>9-7-9>(11)---|
D|---------------------------------------------------|
A|---------------------------------------------------|
E|---------------------------------------------------|

 D                              Am
 This old world still looks the same,
e|--------------------------------------------|
B|--------------------------------------------|
G|------------------------------7>(9)==>7-----|
D|-----------------------------------------0--|
A|--------------------------------------------|
E|--------------------------------------------|

    D7     G
 an-oth-er frame.
e|---------3---------------------------------|
B|---------0---------------------------------|
G|---------0----------(5\7vvvv-5-4vvvv)------| (G2)
D|---------0-0h2p0h2p0-----------4-0h2p0h2p0-| (G1)
A|---------x---------------------------------|
E|---------3---------------------------------|

   G                    G                     G
                        (Um----------------------|um)
e|-3--------------------3---------------------3--|
B|-0--------------------0---------------------0--|
G|-0--------------------0---------------------0--|
D|-0-0h4-4-2-0h2p0h2p0--0-0h4-4-2--0h2p0h2p0--0--|
A|-x--------------------x---------------------2--|
E|-3--------------------3---------------------3--|

Chord diagrams:

G/E    Gmaj7  Gmaj7* G      G/D    G*     G**    Am     Am*
3x2003 2x0003 x00432 3x0003 xx0033 355433 xx9787 x02210 577555
Am7   C      C*     D*     D7     D7*    D      E      Em
57585 032010 xx5553 xx7775 xx0212 557575 x00232 022100 022000
Em7    A      Bm     B
022030 x03330 xx4432 xx4442



************************************

| >( )>  bend to note in ( ) and release, 
| ( )>   bend to note in ( ) before playing, 
| ->( )  pause before bending to note in ( ), 
| ===    hold bend, 
| h      hammer on.
| p      pull off, 
| /      slide down, 
| \      slide up. 
| (G1)   guitar 1
| (G2)   guitar 2

************************************
Suggest correction
Give kudos to tab author, rate the tab!
1 2 3 4 5
comments
print report bad tab
1 comment total.
0 reply
tnewc 10 Feb 02, 2015 08:12 PM

Intro doesn't work for me.

guest
You may want to rate the tab now too:
select rating
Wanna post a correction for this tab? Suggest correction