Oops, an error
Loading. Please wait.

Tequila Sunrise Bass Tab

version 4
version 4

Whole song

Interactive

13 views 1 this week
no commentswrite comment
1 2 3 4 5
3 more votes to show rating
add to favorites
launch autoscroll
font size
0
reset
guitar tuner
Autoscroll
slow
fast
+/-
esc
set tempo
stop
Help us to improve Ultimate-Guitar.com Take our survey!
×
Author
Tequila Sunrise
Track by The Eagles taken from their 1973 album Desperado.
Bass performance Randy Meisner. Tab by bass50611.
As per original recording I think.

Intro:
G|--------------|-----------------------------------------------|
D|-GUITAR START-|-----------------------------------------------|
A|----8 BARS----|----------7---5--5-7-5---------5-------3h5-3h5-|
E|--------------|-3-4-5--5-------------7---3--3----3--3---------|

Verses 1 & 2:
G|---------------------------------------------------|
D|---------------------------------------------------|
A|------5------5---5--5---5--5---------7---5--5-7-5--|
E|-3--3---3--3----------5------5---5--5------------7-|

 (1st Time)                   (2nd Time)
G|----------------------|   |---------------|
D|----------------------|   |---------------|
A|------5-------3h5-3h5-|   |------5------5-|
E|-3--3----3--3---------|   |-3--3---3--3---|

Bridge:
G|----------------------------------------------------------|
D|-------------------5------------------------5-------------|
A|-7--7-7---3--3--5/7-7-5---7--7-7---3--3--5/7-7-5---7--7-7-|
E|----------------------------------------------------------|

G|--------------------------------|
D|--------------------------------|
A|-0--0-0---5--5-5---5--5-7-5-7-5-|
E|--------------------------------|

Verse 3:
G|------------------------------------------------------|
D|------------------------------------------------------|
A|------5------5---5--5---5--5----5-------7---5--5-7-5--|
E|-3--3---3--3----------5------5---7-5--5-------------7-|

G|----------------------|
D|----------------------|
A|------5-------3h5-3h5-|
E|-3--3----3--3---------|

Verse 4:
G|---------------------------------------------------|
D|---------------------------------------------------|
A|------5------5---5--5---5--5---------7---5--5-7-5--|
E|-3--3---3--3----------5------5---5--5------------7-|

G|---------------|
D|---------------|
A|------5------5-|
E|-3--3---3--3---|

Solo:
G|---------------------------------------------------------|
D|---------------------------------------------------------|
A|------5-----------2-5--5---5--5----5-------7---5--5-7-5--|
E|-3--3-----3--3-3---------5------5---7-5--5-------------7-|

G|-------------------|
D|-------------------|
A|------5-------5----|
E|-3--3----3--3----7-|

Middle 8:
G|----------------------------------------------------------|
D|----------------------------------------------------------|
A|---------5--5-5----------7--7-7---------------------------|
E|-5--5-5----------7--7-7----------5--5-5---7--7-7---0--0-0-|

G|---------------|
D|---------------|
A|-----5-7-5-7-5-|
E|-5-------------|


Last Verse:
G|---------------------------------------------------|
D|---------------------------------------------------|
A|------5--------2-5--5---5--5---------7---5--5-7-5--|
E|-3--3---3--3-3--------5------5---5--5------------7-|

G|---------------|
D|---------------|
A|------5------5-|
E|-3--3---3--3---|

Outro:                                       (End On Bass Chord)
G|------------------------------------------------|
D|----------------------------------------------5-|
A|------5------3h5-3h5-------5------3h5-3h5-------|
E|-3--3----3--3---------3--3----3--3------------3-|



It's another tequila sunrise
Starin slowly cross the sky, said goodbye
He was just a hired hand
Workin on the dreams he planned to try
The days go by

Evry night when the sun goes down
Just another lonely boy in town
And she's out runnin round

She wasn't just another woman
And I couldn't keep from comin on
It's been so long
Oh, and it's a hollow feelin when
It comes down to dealin friends
It never ends

Take another shot of courage
Wonder why the right words never come
You just get numb
It's another tequila sunrise, this old world
Still looks the same,
Another frame, mm...
Suggest correction
Give kudos to tab author, rate the tab!
1 2 3 4 5
comments
print report bad tab
guest
You may want to rate the tab now too:
select rating
Wanna post a correction for this tab? Suggest correction