Oops, an error
Loading. Please wait.
We have an official The Long Run tab made by UG professional guitarists. Check out the tab »
×
by Eagles
1,514 views 9 this week
no commentswrite comment
1 2 3 4 5
x 6
add to favorites
×
Save as Personal and add changes to this tab that will be seen only by you. Learn more ›
×
You can save this tab as Personal to edit and correct it or add notes. All changes will be seen only by you. Learn more »
launch autoscroll
font size
0
reset
guitar tuner
edit
Autoscroll
slow
fast
+/-
esc
set tempo
stop
Author
Difficulty
Typo corrected, oups !
Great bass on this Eagles' song... it works perfectly... Just try it and enjoy ! 

and please Rate this tabs / leave me a message for more to come... 
Bruno from UK

Tuning : EADG
Tempo : 99 bpm

Intro 1.
G-|------------------|-----------------|-----------------||----------------|-
D-|------------------|-------------3---|-3-3-----3-------||-3-3------------|-
A-|--3-3-----3-------|-3-3-----3-3---3-|-----5-3---3-5-3-||-----0-0-1-1-2-2|-
E-|------5-3---3-5-3-|-----5-3---------|-----------------||----------------|-

G-|------------------|-----------------|-----------------||-----2--3--4--5-|-
D-|------------------|-------------3---|-3-3-----3-------||-3-3------------|-
A-|--3-3-----3-------|-3-3-----3-3---3-|-----5-3---3-5-3-||----------------|-
E-|------5-3---3-5-3-|-----5-3---------|-----------------||----------------|-


Verse 1 00:20 ”I used to hurry a lot, I used to worry a lot,”
G-|-----------------|-----------------|------------------|-----------------|-
D-|-----------------|-------------3---|-3-3-----3--------|-3-3-------------|-
A-|-3-3-----3-------|-3-3-----3-3---3-|-----5-3---3-5-3--|-----0-0-1-1-2-2-|-
E-|-----5-3---3-5-3-|-----5-3---------|------------------|-----------------|-

G-|-----------------|-----------------|------------------|-----------------|-
D-|-----------------|-------------3---|-3-3-----3--------|-3-3-----3-------|-
A-|-3-3-----3-------|-3-3-----3-3---3-|-----5-3---3-5-3--|-----5-3---3-----|-
E-|-----5-3---3-5-3-|-----5-3---------|------------------|-------------3-5-|-


Chorus 1 00:40 ” Oh, I did some damage, I know it's true”
G-|-----------------|-----------------|------------------|-----------------|-
D-|-----------------|-----------------|------------------|-----------------|-
A-|-----------------|-----------------|------------------|-----0-0-1-1-2-2-|-
E-|-5-5-5-5-5-5-5-5-|-5-5-5-5-5-5-5-0-|-1-1-1-1-1-1-1-1--|-1-1-------------|-


Verse 2 00:50 ” You can go the distance,”
G-|-----------------|-----------------|-----------------|-----------------|-
D-|-----------------|-------------3---|-3-3-----3-------|-3-3-------------|-
A-|-3-3-----3-------|-3-3-----3-3---3-|-----5-3---3-5-3-|-----0-0-1-1-2-2-|-
E-|-----5-3---3-5-3-|-----5-3---------|-----------------|-----------------|-

G-|-----------------|-----------------|-----------------|------------------|-
D-|-----------------|-------------3---|-3-3-----3-------|-3-3-----3-3------|-
A-|-3-3-----3-------|-3-3-----3-3---3-|-----5-3---3-5-3-|-----5-3-----3----|-
E-|-----5-3---3-5-3-|-----5-3---------|-----------------|---------------3-5|-


Chorus 2 01:09 ”People talkin' about us,”
G-|-----------------|-----------------|------------------|-----------------|-
D-|-----------------|-----------------|------------------|-----------------|-
A-|-----------------|-----------------|------------------|-----0-0-1-1-2-2-|-
E-|-5-5-5-5-5-5-5-5-|-5-5-5-5-5-5-5-0-|-1-1-1-1-1-1-1-1--|-1-1-------------|-


Bridge X2 01:18 ” In the long run”
G-|-----------------|-----------------|------------------|-----------------|-
D-|-----------------|-3-3-------------|------------------|-----------------|-
A-|-3-3-----3-------|------0--1—2--3--|-3-3------3-------|-----------------|-
E-|-----5-3---3-5-3-|-----------------|------5-3---3-5---|---3-3-3-3-------|-


Verse 3 01:28 ” You know I don't understand,”
G-|-----------------|-----------------|------------------|-----------------|-
D-|-----------------|-------------3---|-3-3-----3--------|-3-3-------------|-
A-|-3-3-----3-------|-3-3-----3-3---3-|-----5-3---3-5-3--|-----0-0-1-1-2-2-|-
E-|-----5-3---3-5-3-|-----5-3---------|------------------|-----------------|-

G-|-----------------|-----------------|------------------|-----------------|-
D-|-----------------|-------------3---|-3-3-----3--------|-3-3-----3-3-----|-
A-|-3-3-----3-------|-3-3-----3-3---3-|-----5-3---3-5-3--|-----5-3-----3---|-
E-|-----5-3---3-5-3-|-----5-3---------|------------------|---------------3-5-


Chorus 3 01:48 ” Did you do it for love?”
G-|-----------------|-----------------|------------------|-----------------|-
D-|-----------------|-----------------|------------------|-----------------|-
A-|-----------------|-----------------|------------------|-----0-0-1-1-2-2-|-
E-|-5-5-5-5-5-5-5-5-|-5-5-5-5-5-5-5-0-|-1-1-1-1-1-1-1-1--|-1-1-------------|-


Verse 4 01:57 ”Who is gonna make it?”
G-|-----------------|-----------------|------------------|-----------------|-
D-|-----------------|-------------3---|-3-3-----3--------|-3-3-------------|-
A-|-3-3-----3-------|-3-3-----3-3---3-|-----5-3---3-5-3--|-----0-0-1-1-2-2-|-
E-|-----5-3---3-5-3-|-----5-3---------|------------------|-----------------|-

G-|-----------------|-----------------|------------------|------------------|-
D-|-----------------|-------------3---|-3-3-----3--------|-3-3-----3-3------|-
A-|-3-3-----3-------|-3-3-----3-3---3-|-----5-3---3-5-3--|-----5-3-----3----|-
E-|-----5-3---3-5-3-|-----5-3---------|------------------|---------------3-5|-


Chorus 4 02:17 ”Well, we're scared, but we ain't shakin'...”
G-|-----------------|-----------------|------------------|-----------------|-
D-|-----------------|-----------------|------------------|-----------------|-
A-|-----------------|-----------------|------------------|-----0-0-1-1-2-2-|-
E-|-5-5-5-5-5-5-5-5-|-5-5-5-5-5-5-5-0-|-1-1-1-1-1-1-1-1--|-1-1-------------|-


Final Bridge 02:26 ” In the long run”
G-|-----------------|-----------------|------------------|-----------------|-
D-|-----------------|-3-3-------------|------------------|-3-3-------------|-
A-|-3-3-----3-------|------0--1—2--3--|-3-3------3-------|------0--1—2--3--|-
E-|-----5-3---3-5-3-|-----------------|------5-3---3-5-3-|-----------------|-

G-|-----------------|-----------------|------------------|-----------------|-
D-|-----------------|-3-3-------------|------------------|-----------------|-
A-|-3-3-----3-------|------0--1—2--3--|-3-3------3-------|-----------------|-
E-|-----5-3---3-5-3-|-----------------|------5-3---3-5---|---3-3-3-3-------|-


Riff 02:46 repeat sequence x2 and fade ”Going to find out..” 1.
G-|o-----------------|-----------------|-----------------||-----------------|
D-|o-----------------|-------------3---|-3-3-----3-------||-3-3-------------|
A-|o-3-3-----3-------|-3-3-----3-3---3-|-----5-3---3-5-3-||-----0-0-1-1-2-2-|
E-|------5-3---3-5-3-|-----5-3---------|-----------------||-----------------|

G-|-----2--3--4-5-|-
D-|-3-3-----------|-
A-|---------------|-
E-|---------------|-

End : 03:41

            
            
Suggest correction
Creating personal tab
Creating personal tab
You can edit any tab online and save it as your Personal.

You can edit, replace or remove any tab part or add personal notes – all changes will be seen only by you.

Personal tabs can be accessed anytime from any device, even offline.
Learn more »
comments
print report bad tab
guest
You may want to rate the tab now too:
select rating
Wanna post a correction for this tab? Suggest correction