Oops, an error
Loading. Please wait.

Try And Love Again Tab

version 2
version 2

Solo

  • Hey. All "brp" are bent up two frets from the numb... Show more

Whole song

Interactive

103 views 1 this week
no commentswrite comment
1 2 3 4 5
3 more votes to show rating
add to favorites
launch autoscroll
font size
0
reset
how to read this tab
guitar tuner
×
Best way to learn
"Try And Love Again"
Autoscroll
slow
fast
+/-
esc
set tempo
stop
Author
Difficulty
  follow
intermediate
About this tab version
Hey. All "brp" are bent up two frets from the number before it. So 9brp is bent from 9th fret up to 11, hopefully that makes sense. Anyway my first tab to please help me out if there are easier ways to write something. Thanks, and if you can please try and love again. Was this info helpful? Yes No
e ----------------------------------------------------|
B -----------------------------------------15---------|
G ----------------------------------16----------------|
D ----------------------------------------------------|
A ----------------------------------------------------|
E ----------------------------------------------------|

e ----------------------------------------------------|
B --17b19----17brp15---17----------15------17---------|
G ----------------------------------------------------|
D ------------------------17--------------------------|
A ----------------------------------------------------|
E ----------------------------------------------------|

e ----------------------------------------------------|
B --17b19----17brp15---17-----------15------17--------|
G ----------------------------------------------------|
D --------------------------17------------------------|
A ----------------------------------------------------|
E ----------------------------------------------------|

e ------------17--------------------------------------|
B --17brp15----------------17brp15--------------------|
G ------------------------------------14--------------|
D ----------------------------------------------------|
A ----------------------------------------------------|
E ----------------------------------------------------|

e ------------10--7-----------------------------------|
B -------------------10-------------------------------|
G ------9b11-------------9brp7--------7~--------------|
D ------------------------------9-----------9---------|
A ----------------------------------------------------|
E ----------------------------------------------------|

e ----------------------------------------------------|
B ----------------------------7-----------------------|
G --7~--------9brp------7--9--------7~----------------|
D -------9---------9-------------9-------9------------|
A ----------------------------------------------------|
E ----------------------------------------------------|

e --------------------7------------------------------|-----|
B --7--8--10----10-------10--8--7--------------------|-----|
G ---------------------------------9--7--------------|-----|
D ---------------------------------------9--7--------|-----|
A ---------------------------------------------9--7--|--9--|
E ---------------------------------------------------|-----|

Harmony at end of solo:

e ---------------------------------------------------|-----|
B --------------------8--7---------------------------|-----|
G --------------------------9--7---------------------|-----|
D --------------------------------9--7---------------|-----|
A --------------------------------------9--7---------|-----|
E --------------------------------------------10--7--|--10-|

Suggest correction
Give kudos to tab author, rate the tab!
1 2 3 4 5
comments
print report bad tab
guest
You may want to rate the tab now too:
select rating
Wanna post a correction for this tab? Suggest correction