Oops, an error
Loading. Please wait.

Witchy Woman tab

version 4
version 4

Whole song

Interactive

by Eagles
745 views 27 this week
no commentswrite comment
1 2 3 4 5
3 more votes to show rating
add to favorites
×
Save as Personal and add changes to this tab that will be seen only by you. Learn more ›
×
You can save this tab as Personal to edit and correct it or add notes. All changes will be seen only by you. Learn more »
launch autoscroll
font size
0
reset
how to read this tab
guitar tuner
edit
Autoscroll
slow
fast
+/-
esc
set tempo
stop
Author
-------------------------------------------------------------------------------
                             Eagles - Witchy Woman
-------------------------------------------------------------------------------
Tabbed by:P-offitt
:Tuning:Standard


***!!Full song Below!!**


e|--1h3--1h3---1--x-x--xxx-----1--x-x--xxx---x--x--x---|
B|--3----3-----3--3-3--333-----3--3-3--333---1--x--x---|
G|--0----0-----0--0-0--000-----0--0-0--000---0--3--0---|
D|--0----0-----0--0-0--000-----0--0-0--000---0--0--0---|
A|--x----x-----x--x-x--xxx-----x--x-x--xxx---x--x--x---|
E|--x----x-----x--x-x--xxx-----x--x-x--xxx---x--x--x---|

e|--1h3--1h3---1--x-x--xxx-----1--x-x--xxx---x--x--x---|
B|--3----3-----3--3-3--333-----3--3-3--333---1--x--x---|
G|--0----0-----0--0-0--000-----0--0-0--000---0--3--3/5-|
D|--0----0-----0--0-0--000-----0--0-0--000---0--0--3/5-|
A|--x----x-----x--x-x--xxx-----x--x-x--xxx---x--x--x---|
E|--x----x-----x--x-x--xxx-----x--x-x--xxx---x--x--x---|


e|--------------|
B|----3----5\3--|
G|----3----5\3--|
D|-3/5---5------|
A|--------------|
E|--------------|


**************************************
Verse: G5 3x0033        D7 xx0313 
 
***********************************

solo 1 @ 1:10 :



|-------------------------------------------------|
|-5b--3--------------6-3---3----------------6/8---|
|-5b--3------5--5~~------5------5-3-5---3---------|
|-----3--5/7------------------------------5-------|
|-------------------------------------------------|
--------------------------------------------------|

Solo 2:

|--------------------------------------------------|
|-5br--3--------------6-3---3----------------6/8---|
|-5br--3------5--5~~------5------5-3-5---3---------|
|------3--5/7------------------------------5-------|
|--------------------------------------------------|
|--------------------------------------------------|

|-----------------------------------3----------------|
|-5br-5b----3---------------6-3---3-3--6--3----------|
|-5br-5b----3------5---5~~------5------------5-3b----|
|-----------3--5/7---7-----------------------------5~|
|----------------------------------------------------|
|----------------------------------------------------|

|--------------------------------------------------------------------|
|-----------6--8-8--6-8--8b-8b-8b-8br6-------------------------------|
|----3-5/7-----------------------------7-7p5-5\3------3----3--5--5/7-|
|--5---------------------------------------------5-3-5--5------------|
|--------------------------------------------------------------------|
|--------------------------------------------------------------------|

|----8-6----------------------------------------------------6---------|
|--6-----8--6-6/8-8-6----------------------------------6--8----8------|
|---------------------7--5--3-3h5-3-2-----------3--5/7----------------|
|-------------------------------------3-2-3-3/5-----------------------|
|---------------------------------------------------------------------|
|---------------------------------------------------------------------|

Solo 3: (played after ....ahhhh ahah.....)
e|--3----3-----1--x-x--xxx-----1--x-x--xxx---x--x--x---|
B|--3----3-----3--3-3--333-----3--3-3--333---1--x--x---|
G|--0----0-----0--0-0--000-----0--0-0--000---0--3--0---|
D|--0----0-----0--0-0--000-----0--0-0--000---0--0--0---|
A|--x----x-----x--x-x--xxx-----x--x-x--xxx---x--x--x---|
E|--x----x-----x--x-x--xxx-----x--x-x--xxx---x--x--x---|

e|--3----3-----1--x-x--xxx-----1--x-x--xxx---x--x--x---|
B|--3----3-----3--3-3--333-----3--3-3--333---1--x--x---|
G|--0----0-----0--0-0--000-----0--0-0--000---0--3--1---|
D|--0----0-----0--0-0--000-----0--0-0--000---0--0--0---|
A|--x----x-----x--x-x--xxx-----x--x-x--xxx---x--x--x---|
E|--x----x-----x--x-x--xxx-----x--x-x--xxx---x--x--x---|


Outro:
|-----------------------------------------------------------------------|
|--6--3--3-------------6/8----------------------------------------------|
|-------5---5-3-5--3----------------------------------------------------|
|--------------------5------------3-------------------------------------|
|-----------------------------------5-3-5--3\1-3--1--------------------|
|----------------------------------------------------1---1h3~-----------|

:::::::::::::::::::::Song Start :::::::::::::::::::::::::::
***Intro tab***
**************************************
Verse: G5 3x0033 (or for elec.)  xx578x
       D7 xx0313 ("          ")  xx757x
 
***********************************
G5              D7 
Raven hair and ruby lips 
                     G5
sparks fly from her finger tips 
               D7
Echoed voices in the night
                            G5 
she's a restless spirit on an endless flight 
           D7                            C:x35xxx s\ Bb:x13xxx G:35xxxx
wooo hooo witchy woman, see how high she flies 
G5        D7                             C\Bb   G    
woo hoo witchy woman she got the moon in her eyes
***Solo 1***
She held me spellbound in the night 
dancing shadows and firelight 
crazy laughter in another 
room and she drove herself to madness 
with a silver spoon 
woo hoo witchy woman see how high she flies 
woo hoo witchy woman she got the moon in her eyes
***Solo 2***
..ahhhh...(etc..)
***Solo 3***
Well I know you want a lover, 
let me tell your brother, she's been sleeping 
in the Devil's bed. 
And there's some rumors going round 
someone's underground 
she can rock you in the nighttime 
'til your skin turns red 
woo hoo witchy woman see how high she flies 
woo hoo witchy woman she got the moon in her eye
***Outro***
:::::::::::::::::::::::::::::::::::::::::::::::::::::::::::::::::::: 


************************************

I'll write down the solo later
Please rate.
************************************

| /   slide up
| \   slide down
| h   hammer-on
| p   pull-off
| ~   vibrato
| +   harmonic
| x   Mute note
| b   Bend
| pb  Pre-bend
| br  Bend release
| pbr Pre-bend release
| brb Bend release bend

************************************

            
            
Suggest correction
Creating personal tab
Creating personal tab
You can edit any tab online and save it as your Personal.

You can edit, replace or remove any tab part or add personal notes – all changes will be seen only by you.

Personal tabs can be accessed anytime from any device, even offline.
Learn more »
Give kudos to tab author, rate the tab!
1 2 3 4 5
comments
print report bad tab
guest
You may want to rate the tab now too:
select rating
Wanna post a correction for this tab? Suggest correction