Oops, an error
Loading. Please wait.

Addicted To Love Tab

3,817 views 18 this week
no commentswrite comment
1 2 3 4 5
3 more votes to show rating
add to favorites
launch autoscroll
font size
0
reset
how to read this tab
guitar tuner
Autoscroll
slow
fast
+/-
esc
set tempo
stop
Help us to improve Ultimate-Guitar.com Take our survey!
×
Author
Addicted To Love by The Eagles Of Death Metal (Robert Palmer Cover)
From Death By Sexy

INTRO/MAIN RIFF
e-------------------------------------------------------------------------|
B-------------------------------------------------------------------------|
G-------------------------------------------------------------------------|
D--5/7-7-7--5/7-7-7--3/5-5-5--3/5-5-5--10/12-12-12--10/12-12-12--5/7-7-7--|
A--5/7-7-7--5/7-7-7--3/5-5-5--3/5-5-5--10/12-12-12--10/12-12-12--5/7-7-7--|
E--3/5-5-5--3/5-5-5--1/3-3-3--1/3-3-3--8-/10-10-10--8-/10-10-10--3/5-5-5--|

cont. from above
           x4
e-----------|
B-----------|
G-----------|
D--5/7-7-7--|
A--5/7-7-7--|
E--3/5-5-5--|

1.02 CHORUS
e----------------------------------------------------------------|
B----------------------------------------------------------------|
G----------------------------------------------------------------|
D--5-5-5-5--12-12-12-12--5/7-7-7--5/7-7-7--5-5-5-5--12-12-12-12--|
A--5-5-5-5--12-12-12-12--5/7-7-7--5/7-7-7--5-5-5-5--12-12-12-12--|
E--3-3-3-3--10-10-10-10--3/5-5-5--3/5-5-5--3-3-3-3--10-10-10-10--|

2.28 SOLO
e--------------------------------------------------------------------------|
B--------------------------------------------------------------------------|
G----------------------------------7-10br-7--------------------------7-10br|
D-----------------------------8-10----------10-101010-10-7----7-7-10-------|
A------------------------8-10------------------------------10--------------|
E--3-5br-3-5br-3-8b-8-10---------------------------------------------------|
                                                 ^
cont. from above                              tremolo
e---------------|                              pick 
B---------------|                                
G---------------|
D--10-7----7-7--|
A-------10------|
E---------------|

PLAY MAIN RIFF UNTIL END

Any corrections please comment
Thanks
Suggest correction
Give kudos to tab author, rate the tab!
1 2 3 4 5
comments
print report bad tab
guest
You may want to rate the tab now too:
select rating
Wanna post a correction for this tab? Suggest correction