Oops, an error
Loading. Please wait.

Dont Speak Tab

version 1
version 1

Whole song

Interactive

39,971 views 36 this week
15 commentsread comments
1 2 3 4 5
accurate
x 15
add to favorites
launch autoscroll
font size
0
reset
how to read this tab
guitar tuner
Autoscroll
slow
fast
+/-
esc
set tempo
stop
Help us to improve Ultimate-Guitar.com Take our survey!
×
ok this is really simple...

Intro
e|------------------------------------------------------------|
B|------------------------------------------------------------|
G|------------------------------------------------------------|
D|---8-8-8-8------8-8-8-8------8-8------^----------^----------|
A|---8-8-8-8------8-8-8-8------8-8--4-6-6-4---4-6--6--6-4-----|
E|---6-6-6-6------6-6-6-6------6-6----------6------------6-4--|
                                  |------------x4-------------| 
Pace em out                                   
e|---------|
B|---------|
G|---------|
D|-8--8-8--|x4
A|-8--8-8--|
E|-6--6-6--|

e|-------------------------------|        
B|-------------------------------|          
G|-------------------------------|        
D|-8------^----------^-----------|x4      
A|-8--4-6-6-4---4-6--6--6-4------|        
E|-6-6--------6-------------6-4--|        

Pace em out...like in the song
e|---------|
B|---------|
G|---------|
D|-8--8-8--|x4
A|-8--8-8--|
E|-6--6-6--|

e|-------------------------------|        
B|-------------------------------|          
G|-------------------------------|        
D|-8------^----------^-----------|x4      
A|-8--4-6-6-4---4-6--6--6-4------|       
E|-6-6--------6-------------6-4--|

e|---------|
B|---------|
G|---------|
D|-8--8-8--|x1
A|-8--8-8--|
E|-6--6-6--|

Laughter Part HAHAHAHAHA
[Insert Solo Here] on top of what is below

e|-------------------------------|          
B|-------------------------------|        
G|-8------^----------^-----------|x2      
D|-8--4-6-6-4---4-6--6--6-4------|        
A|-6-6--------6-------------6-4--|
E|-------------------------------|

e|-------------------------------|        
B|-------------------------------|          
G|-------------------------------|        
D|-8------^----------^-----------|x2      
A|-8--4-6-6-4---4-6--6--6-4------|        
E|-6-6--------6-------------6-4--|

Listen to song for the bends and the scratches
e|---------|      
B|---------|
G|---------|
D|-8--8-8--|x11
A|-8--8-8--|
E|-6--6-6--|

Play this to the end and your done
e|-------------------------------|        
B|-------------------------------|          
G|-------------------------------|        
D|-8------^----------^-----------|     
A|-8--4-6-6-4---4-6--6--6-4------|        
E|-6-6--------6-------------6-4--|

this is really basic...hope it works for you as well as me. Enjoy.
Suggest correction new What's this?
You can suggest a correction to this tab. Community and Mods will review your correction and vote to approve or reject it.
comments
print report bad tab
15 comments total. Showing first comments. show 1 bad comment
+3 reply
Chris_Parker 1,305 wrote on March 29 2008, 05:06 pm

No, it's right.


Could you tab out the solo? It's just noodling on a similar scale, I'm sure. Just like a lot of his other stuff, unless it's a Josh Homme solo, in which case could you still tab it? lol

5*

+4 reply
Topstring 148 wrote on May 21 2008, 04:19 pm

Sounds more like

A|4-6-6-4---4-6--6--6-4--4--|
E|--------6------------6----|

guest
You may want to rate the tab now too:
select rating
Please do not post tabs as comments. Select "correction" instead!