Oops, an error
Loading. Please wait.

Dont Speak Tab

version 1
version 1

Whole song

Interactive

40,760 views 33 this week
15 commentsread comments
1 2 3 4 5
x 16
add to favorites
launch autoscroll
font size
0
reset
how to read this tab
guitar tuner
Autoscroll
slow
fast
+/-
esc
set tempo
stop
Help us to improve Ultimate-Guitar.com Take our survey!
×
[Intro]
e|------------------------------------------------------------|
B|------------------------------------------------------------| (x4)
G|------------------------------------------------------------|
D|---8-8-8-8------8-8-8-8------8-8------^----------^----------|
A|---8-8-8-8------8-8-8-8------8-8--4-6-6-4---4-6--6--6-4-----|
E|---6-6-6-6------6-6-6-6------6-6----------6------------6-4--|

Pace em out                                   
e|---------|
B|---------|
G|---------|
D|-8--8-8--|(x4)
A|-8--8-8--|
E|-6--6-6--|

e|-------------------------------|        
B|-------------------------------|          
G|-------------------------------|        
D|-8------^----------^-----------|(x4)   
A|-8--4-6-6-4---4-6--6--6-4------|        
E|-6-6--------6-------------6-4--|        

Pace em out...like in the song
e|---------|
B|---------|
G|---------|
D|-8--8-8--|(x4)
A|-8--8-8--|
E|-6--6-6--|

e|-------------------------------|        
B|-------------------------------|          
G|-------------------------------|        
D|-8------^----------^-----------|(x4)   
A|-8--4-6-6-4---4-6--6--6-4------|       
E|-6-6--------6-------------6-4--|

e|---------|
B|---------|
G|---------|
D|-8--8-8--|
A|-8--8-8--|
E|-6--6-6--|

Laughter Part HAHAHAHAHA
[Insert Solo Here] 
(on top of what is below)
e|-------------------------------|          
B|-------------------------------|        
G|-8------^----------^-----------|(x2)     
D|-8--4-6-6-4---4-6--6--6-4------|        
A|-6-6--------6-------------6-4--|
E|-------------------------------|

e|-------------------------------|        
B|-------------------------------|          
G|-------------------------------|        
D|-8------^----------^-----------|(x2)     
A|-8--4-6-6-4---4-6--6--6-4------|        
E|-6-6--------6-------------6-4--|

(Listen to song for the bends and the scratches)
e|---------|      
B|---------|
G|---------|
D|-8--8-8--|(x11)
A|-8--8-8--|
E|-6--6-6--|

(Play this to the end and your done)
e|-------------------------------|        
B|-------------------------------|          
G|-------------------------------|        
D|-8------^----------^-----------|     
A|-8--4-6-6-4---4-6--6--6-4------|        
E|-6-6--------6-------------6-4--|
Suggest correction
comments
print report bad tab
15 comments total. Showing first comments. show 1 bad comment
+3 reply
Chris_Parker 267 Mar 29, 2008 05:06 PM

No, it's right.


Could you tab out the solo? It's just noodling on a similar scale, I'm sure. Just like a lot of his other stuff, unless it's a Josh Homme solo, in which case could you still tab it? lol

5*

+4 reply
Topstring 10 May 21, 2008 04:19 PM

Sounds more like

A|4-6-6-4---4-6--6--6-4--4--|
E|--------6------------6----|

guest
You may want to rate the tab now too:
select rating
Wanna post a correction for this tab? Suggest correction