Oops, an error
Loading. Please wait.

Miss Alissa Tab

version 1
version 1

Whole song

  • Hi, I made some changes to the existing tabs, whic... Show more

Interactive

33,094 views 60 this week
8 commentsread comments
1 2 3 4 5
x 21
add to favorites
launch autoscroll
font size
0
reset
how to read this tab
guitar tuner
Autoscroll
slow
fast
+/-
esc
set tempo
stop
Help us to improve Ultimate-Guitar.com Take our survey!
×
Author
Difficulty
novice
Miss Alissa

[Whole song]
e|--------------------------------------------------------------------|
B|--------------------------------------------------------------------|
G|--------------------------------------------------------------------|
D|-8--8-10-8-10-8-8-------------------6--6-8-6-8-6-6------------------|
A|-6--6--6-6--6-6-6-9--9-11-9-11-9-9--4--4-4-4-4-4-4--6--6-8-6-8-6-6--|
E|---------------------7--7-7--7-7-7------------------4--4-4-4-4-4-4--|
Suggest correction
comments
print report bad tab
8 comments total. Showing first comments.
+2 reply
HC-Deathroll 41 Jul 27, 2006 03:38 AM

|----------------------------------------------------------------------|
|----------------------------------------------------------------------|
|----------------------------------------------------------------------|
|-8--8-10-8-10-8-8----11-11-13-11-13---6--6-8-6-8-6-6------------------|
|-6--6--6-6--6-6-6-9-- 9- 9- 9- 9- 9---4--4-4-4-4-4-4--6--6-8-6-8-6-6--|
|------------------------------------------------------4--4-4-4-4-4-4--|

is the other guitar part.

0 reply
ledwinder96 20 Dec 28, 2006 07:18 AM

what's the tuning?

0 reply
Majigitajog 10 Jun 06, 2007 08:40 AM

It's standard tuning. Nice tab by the way.

guest
You may want to rate the tab now too:
select rating
Wanna post a correction for this tab? Suggest correction