Oops, an error
Loading. Please wait.

Tough Luck Tab

version 2
version 2

Whole song

31 views 6 this week
no commentswrite comment
1 2 3 4 5
3 more votes to show rating
add to favorites
launch autoscroll
font size
0
reset
how to read this tab
guitar tuner
Autoscroll
slow
fast
+/-
esc
set tempo
stop
Help us to improve Ultimate-Guitar.com Take our survey!
×
Author
Difficulty
novice
The song consists of four riffs that repeat. Listen for the rhythm.

[Intro/verse]
(all downstrokes)
e|-------------------|
B|-------------------|
G|-9----11---7----11-|
D|-9----11---7----11-|
A|-7----9----5----9--|
E|-------------------|

[Main riff]
e|-----------------------------------------------|
B|-----------------------------------------------|
G|-----------------------------------------------|
D|-------------------------0---0-----------------|
A|----2---2---0---0--2--0----0---0----0---0-2/4--|
E|--0---0---2---2-------------------2---2--------|

[Chorus]
(listen for rhythm)
e|----------------------|
B|----------------------|
G|--9----11---14--------|
D|--9----11---14----12--|
A|--7----9----12----12--|
E|------------------10--|

[After chorus]
e|------------------------------|
B|------------------------------|
G|--10---11---8----9----8----9--|
D|--10---11---8----9----6----7--|
A|--8----9----6----7------------|
E|------------------------------|

- or -

e|------------------------------|
B|------------------------------|
G|--10---11---8----9------------|
D|--10---11---8----9----6----7--|
A|--8----9----6----7----6----7--|
E|----------------------4----5--|  

************************************

| /   Slide up

************************************
Suggest correction
Give kudos to tab author, rate the tab!
1 2 3 4 5
comments
print report bad tab
guest
You may want to rate the tab now too:
select rating
Wanna post a correction for this tab? Suggest correction