Oops, an error
Loading. Please wait.

Oye Vaya Tab

500 views 1 this week
no commentswrite comment
1 2 3 4 5
2 more votes to show rating
add to favorites
launch autoscroll
font size
0
reset
how to read this tab
guitar tuner
Autoscroll
slow
fast
+/-
esc
set tempo
stop
Help us to improve Ultimate-Guitar.com Take our survey!
×
Author
Difficulty
novice
Intro/Fill:
e--999999999999-888888888888-999999999999-888888888888----------------------|
b--999999999999-888888888888-999999999999-888888888888----------------------|
g--666666666666-555555555555-666666666666-555555555555----------------------|
d---------------------------------------------------------------------------|
a---------------------------------------------------------------------------|
e---------------------------------------------------------------------------|

Chorus:
e------------------X-X---------X-X-------------------X-X---------X-X--------|
b------------------X-X---------X-X-------------------X-X---------X-X--------|
g----------2---4---X-X---2-----X-X-----------2---4---X-X---2-----X-X--------|
d--4---4-4-2---4---X-X---2-4---X-X---4---4-4-2---4---X-X---2-4---X-X--------|
a--4---4-4-0---2---X-X---0-4---X-X---4---4-4-0---2---X-X---0-4---X-X--------|
e--2---2-2---------X-X-----2---X-X---2---2-2---------X-X-----2---X-X--------|

Verse:
e----------------------------X-X---X-X---X-X---X-X---X-X---X-X---X-X---X-X--|
b----------------------------X-X---X-X---X-X---X-X---X-X---X-X---X-X---X-X--|
g--4--4--4--4--4--4--4--4----X-X---X-X---X-X---X-X---X-X---X-X---X-X---X-X--|
d--4--4--4--4--4--4--4--4--4-X-X-4-X-X-4-X-X-4-X-X-4-X-X-4-X-X-4-X-X-4-X-X--|
a--2--2--2--2--2--2--2--2--4-X-X-4-X-X-4-X-X-4-X-X-4-X-X-4-X-X-4-X-X-4-X-X--|
e--------------------------2-X-X-2-X-X-2-X-X-2-X-X-2-X-X-2-X-X-2-X-X-2-X-X--|

Bridge:
e------X-X-----X-X-----X-X-----X-X-----X-X-----X-X-----X---X----------------|
b------X-X-----X-X-----X-X-----X-X-----X-X-----X-X-----X---X----------------|
g------X-X-----X-X-----X-X-----X-X-----X-X-----X-X---2-X-2-X-4--------------|
d--2h4-X-X-2h4-X-X-2h4-X-X-2h4-X-X-2h4-X-X-2h4-X-X-4-2-X-2-X-4--------------|
a--2h4-X-X-2h4-X-X-2h4-X-X-2h4-X-X-2h4-X-X-2h4-X-X-4-0-X-0-X-2--------------|
e--0h2-X-X-0h2-X-X-0h2-X-X-0h2-X-X-0h2-X-X-0h2-X-X-2---X---X----------------|

e------X-X-----X-X-----X-X-----X-X-----X-X-----X-X-----X---X----------------|
b------X-X-----X-X-----X-X-----X-X-----X-X-----X-X-----X---X----------------|
g------X-X-----X-X-----X-X-----X-X-----X-X-----X-X---2-X-2-X----------------|
d--2h4-X-X-2h4-X-X-2h4-X-X-2h4-X-X-2h4-X-X-2h4-X-X-4-2-X-2-X-4--------------|
a--2h4-X-X-2h4-X-X-2h4-X-X-2h4-X-X-2h4-X-X-2h4-X-X-4-0-X-0-X-4--------------|
e--0h2-X-X-0h2-X-X-0h2-X-X-0h2-X-X-0h2-X-X-0h2-X-X-2---X---X-2--------------|

Bridge Solo:
e---------------------------------------------------------------------------|
b---------------------------------------------------------------------------|
g--------2-------2-----------4p3p2---4p3p2---4p3p2--------------------------|
d--2h3h4---2h3h4---2h3h4-----------4-------4--------------------------------|
a---------------------------------------------------------------------------|
e---------------------------------------------------------------------------|
Suggest correction
Give kudos to tab author, rate the tab!
1 2 3 4 5
comments
print report bad tab
guest
You may want to rate the tab now too:
select rating
Wanna post a correction for this tab? Suggest correction