Oops, an error
Loading. Please wait.

Foggy Mountain Breakdown Tab

version 1
version 1

Whole song

Interactive

99,872 views 54 this week
1 commentread comment
1 2 3 4 5
accurate
x 8
add to favorites
launch autoscroll
font size
0
reset
how to read this tab
guitar tuner
Tab Pro tools
  • play this tab
  • loop segment
  • change instrument
  • show fretboard
  • metronome
×
Best way to learn
"Foggy Mountain Breakdown"
Autoscroll
slow
fast
+/-
esc
set tempo
stop
Contributor
Difficulty
advanced
E[ ---------33-----33-----33-----------------------|
B[-0-1-2/3----2/3---2/3 ---3-----------------------|
G[------------------------------0------------------|
D[-------------------------------------------------|                  R1
A[-------------------------------------------------|
E[-------------------------------------------------|

E[--------3--3—3---33-----------------------------------|
B[---------0--0---2/3--3--------------------------------|
G[----------0—0--------0                         R2 X 2-|
D[0-1-2-------------------------------------------------|
A[------------------------------------------------------|
E[------------------------------------------------------|

E[---------2—2-------------------------------------|
B[0-1-2/3—3—3--------------------------------------|
G[-----------------0-------------------------------|                   R3
D[-------------------------------------------------|
A[-------------------------------------------------|
E[-------------------------------------------------|

E[---------------------------------|
B[---------------------------------|
G[-----------0---------------------|
D[------0h2------------------------|                     R4
A[--0h2----------------------------|
E[3--------------------------------|

Solo
E[10------10------10------------------------------------------------------10 Tremolo Pick^^^^^--|
B[---10vv---10vv---10-10—8-8-8-8-8---------------------------8-8-10-Tremolo Pick^^^^^8----------|
G[-----------------------------------9-9-9-9-7-----------7-7-9-7-9-9----------------------------|
D[-----------------------------------------------7-5-5-7/9-9------------------------------------|
A[----------------------------------------------------------------------------------------------|
E[----------------------------------------------------------------------------------------------|
 Repeat R1 R2 R3 and end on R4. The Rythmic cords are G D and C.Just download the song 
you can figure it out by ear. P.S. These notes are 16th notes.
comments
print report bad tab
1 comment total.
0 reply
PinkAnCamo wrote on November 11 2013, 06:20 pm

E[--------0--0?0---33-----------------------------------|
B[---------0--0---2/3--3--------------------------------|
G[----------0?0--------0 R2 X 2-|
D[0-1-2-------------------------------------------------|
A[------------------------------------------------------|
E[------------------------------------------------------|

The 3 on E should be changed to a 0. Hope this helped.Great tab though.

I want to post or [tab]
guest
You may want to rate the tab now too:
select rating
Please do not post tabs as comments. Select "correction" instead!