Oops, an error
Loading. Please wait.

Foggy Mountain Special Tab

1,737 views 18 this week
no commentswrite comment
1 2 3 4 5
please rate
add to favorites
launch autoscroll
font size
0
reset
how to read this tab
guitar tuner
Tab Pro tools
  • play this tab
  • loop segment
  • change instrument
  • show fretboard
  • metronome
Autoscroll
slow
fast
+/-
esc
set tempo
stop
Contributor
Difficulty
intermediate
Tabbed by branden weeks.
thasniper93@gmail.com



Q=200(8=s8)
                   E                                   E7
 4/4
  Gtr II

|----^0----7--|-7------0-0-----|-----0-3s2-0-----|-7-0-----0-0------|
|----^0-------|----8s9-----2---|-0-2---------2-0-|-----8s9-----2----|
|----^9-------|----------------|-----------------|------------------|
|----^9-------|----------------|-----------------|------------------|
|----^7-------|----------------|-----------------|------------------|
|----^0-------|----------------|-----------------|------------------|


                         A7                                        E
  
|-----0-3s2-0---0-|-3s12-12-12-12-12-12-12-|-12-0-7-0-9-0-----|-0------0-------|
|-0-2---------2---|------------------------|--------------8s9-|----2-0----2-0--|
|-----------------|------------------------|------------------|----------------|
|-----------------|------------------------|------------------|----------------|
|-----------------|------------------------|------------------|----------------|
|-----------------|------------------------|------------------|----------------|


                       B7                                 E

|-0-----0----7-0-|-10--9---7-0-----|-----0-3s2-0-----|-0--4---4-0---0--|
|---2-0----------|-------------8s9-|-0-2---------2-0-|----8---8--------|
|----------------|-----------------|-----------------|------------6----|
|----------------|-----------------|-----------------|-----------------|
|----------------|-----------------|-----------------|-----------------|
|----------------|-----------------|-----------------|-----------------|


                                                            E7

|-4-0---0---7---0-|-7-0-----0-0-----|-----0-3s2-0-----|-9-0-----0-0------|
|-8---------------|-----8s9-----2---|-0-2---------2-0-|-----8s9-----2----|
|-----6-----------|-----------------|-----------------|------------------|
|-----------------|-----------------|-----------------|------------------|
|-----------------|-----------------|-----------------|------------------|
|-----------------|-----------------|-----------------|------------------|


                          A7

|-----0-3s2-0-----|-12-12-12-12-12-12-12-12-|
|-0-2---------2-0-|-------------------------|
|-----------------|-------------------------|
|-----------------|-------------------------|
|-----------------|-------------------------|
|-----------------|-------------------------|


                                     E

|-12-11-10----------------|-----------------------|
|----------12-11-10----10-|-11p10-----------------|
|-------------------12----|-------12-9-7----------|
|-------------------------|--------------9-8-7----|
|-------------------------|--------------------10-|
|-------------------------|-----------------------|


                        B7                                    E

|-----------------|------------------0-|-3--0-----------|-----0-0----------|
|-----------------|-----0---0------0---|------3-2-0-----|-----0-0----------|
|-----------------|--------------2-----|------------3-2-|-0---1-1----------|
|-----------------|------------4-------|----------------|---2--------------|
|-7-----------0-1-|-1h2----------------|----------------|---------2-0------|
|---0-----3-4-----|--------------------|----------------|-------------3s0--|


                                                        E7

|----0-------0-0-|----------------|------------0-0-|-----------------|
|----0-------0-0-|----------------|------------0-0-|-----------------|
|----1-------1-1-|----------------|------------1-1-|-----------------|
|----2---2-2-2-2-|----------------|-2--------2-2-2-|-----------------|
|----2-----------|----------2-4-2-|----------------|----------2-4-2--|
|-0--------------|-0--2-3s4-------|--------0-------|-0--2-3s4--------|


                      A7                                    E

|------------0-0-|----------------|-------------------|--------------------|
|------------0-0-|----------0-----|-----5-------------|--------------------|
|------------1-1-|----------0---0-|-2s4-----4s2-0-----|-0------------------|
|-2--------2-2-2-|----0h2---------|---------------2-0-|---2-0--------------|
|----------------|-0----------0---|-------------------|-------2-1p0---0----|
|--------0-------|----------------|-------------------|-------------3---3--|


                       B7                                    E

|----------------|------------------0-|-3--0-----------|-----0-0----------|
|----------0---0-|-----0---0------0---|------3-2-0-----|-----0-0----------|
|----------------|--------------2-----|------------3-0-|-1---1-1----------|
|----------------|------------4-------|----------------|---2-2-2----------|
|--------0---1---|-1h2----------------|----------------|---------2-0------|
|-0--3h4---------|--------------------|----------------|-------------3-4--|


                                                           E7

|----0-0-----0-0-|-----------------|---------------0-|----------------------|
|----0-0-----0-0-|-----------------|---------0-3h4---|----------------------|
|----1-1-----1-1-|-----------------|---0-2-3---------|-------------------0--|
|----2-2---2-2-2-|-------------0-1h|=2---------------|-------------0-1h2----|
|----2-2---------|-------0-1-2-----|-----------------|-------0-1h2----------|
|-0------0-------|-0-3s4-----------|-----------------|-0-3s4----------------|


                            A7                                   E

|-----------0-3-4-5s6-|-7-5-3s4-0-------|-0-3s4-0-----0-3\-|-4-0-6-7-0-3s4-0--|
|-----0-3s4-----------|-----------0-3-4-|---------3-4------|------------------|
|-2h3-----------------|-----------------|------------------|------------------|
|---------------------|-----------------|------------------|------------------|
|---------------------|-----------------|------------------|------------------|
|---------------------|-----------------|------------------|------------------|


                        B7                                   E
 
|-----0-3s4-0-----|-0-3s4-0-6-7-0-3\-|-4-0---0---------|-----0-0----------|
|-3-4---------3-4-|------------------|-----3---0-------|-----0-0----------|
|-----------------|------------------|-----------3-2-0-|-1---1-1----------|
|-----------------|------------------|-----------------|---2-2-2---1------|
|-----------------|------------------|-----------------|---------2--------|
|-----------------|------------------|-----------------|-------------3s0--|


                                                         E7

|----0-0-----0-0-|---------------|-----------------|-------------------|
|----0-0-----0-0-|---------------|-----------------|-------------------|
|----1-1-----1-1-|----9------9---|-------9-------9-|-----9-----10------|
|----2-2---2-2-2-|---------------|-----------------|-------------------|
|----2-2---------|-7------7------|---7-------7-----|-6s7---7s8----8s9--|
|-0------0-------|---------------|-0---0---0---0---|-------------------|


                              A7                                 E

|-----------------------|-9-0-----0-0-----|-----0-3s2-0-----|-6--6s7-0-0---0--|
|-----------------------|-----8s9-----2---|-0-2---------2-0-|-7--7s8----------|
|-11------12-------13---|-----------------|-----------------|------------6----|
|-----------------------|-----------------|-----------------|-----------------|
|----9s10----10s11------|-----------------|-----------------|-----------------|
|-----------------------|-----------------|-----------------|-----------------|


                       B7

|-6--6s7-0-0---0-|---7-(7)---7-5-3s4-|
|-7--7s8---------|-0-------0---------|
|------------6---|-------------------|
|----------------|-------------------|
|----------------|-------------------|
|----------------|-------------------|


                        E

|-0-----0---------|-------------------------|
|---0-3---0-------|-------------------------|
|-----------3-2-0-|-1-----------------------|
|-----------------|---2-0-------------------|
|-----------------|-------2-1p==0-----------|
|-----------------|-----------------3-(3)---|


                                                          E7

|----0------0-0-|-7-0-----0-0-----|-----0-3s2-0-----|-7-0-9-0-12-0-9-0--|
|----0----------|-----8s9-----2---|-0-2---------2-0-|-------------------|
|----1----------|-----------------|-----------------|-------------------|
|----2----------|-----------------|-----------------|-------------------|
|----2----------|-----------------|-----------------|-------------------|
|-0------0------|-----------------|-----------------|-------------------|


                          A7

|-7-9-7-----0-----|-12-12-12-12-12-12-12-12-|
|-------8s9---2-0-|-------------------------|
|-----------------|-------------------------|
|-----------------|-------------------------|
|-----------------|-------------------------|
|-----------------|-------------------------|


                        E

|-12-0-7---9-0-----|-0------0-------|
|--------------8s9-|----2-0----2-0--|
|------------------|----------------|
|------------------|----------------|
|------------------|----------------|
|------------------|----------------|


                       B7                                 E

|-0-----0----7-0-|-10--9---7-0-----|-----0-3s2-0-----|-0---------------|
|---2-0----------|-------------8s9-|-0-2---------2-0-|----3---0--------|
|----------------|-----------------|-----------------|----------2-0-1--|
|----------------|-----------------|-----------------|-----------------|
|----------------|-----------------|-----------------|-----------------|
|----------------|-----------------|-----------------|-----------------|


                                                           E7

|----0-0----7-0-|-7-0-----0------|-----0-3s2-0-----|-7p0-0-9p0-0-10p0-0-9p0-0--|
|----0-0--------|-----8s9----2---|-0-2---------2-0-|---------------------------|
|----1-1--------|----------------|-----------------|---------------------------|
|-2--2-2--------|----------------|-----------------|---------------------------|
|---------------|----------------|-----------------|---------------------------|
|--------0------|----------------|-----------------|---------------------------|


                                  A7

|-7p0-0-5p0-0-4p0-0-5p0-0-|-7p0-0-9p0-0-10p0-0-9p0-0-|
|-------------------------|--------------------------|
|-------------------------|--------------------------|
|-------------------------|--------------------------|
|-------------------------|--------------------------|
|-------------------------|--------------------------|



|-7p0-0-12p0-0-10p0-0-9p0-0-|
|---------------------------|
|---------------------------|
|---------------------------|
|---------------------------|
|---------------------------|


      E                                  B7

|-7-9-----0------|-0-----0---------|-------------5-3-|-0-6s5-4-0--------|
|-----8s9----2-0-|---2-0---------0-|-------5-3-0-----|-----------3-0-3--|
|----------------|-----------3s4---|-4-2-0-----------|------------------|
|----------------|-----------------|-----------------|------------------|
|----------------|-----------------|-----------------|------------------|
|----------------|-----------------|-----------------|------------------|


     E

|-0--0-----------|----------------|-0-0-0-0-0-0-^0---*|
|-5--3---0-------|----------------|-0-0-0-0-0-0-^0---*|
|----------3s2-0-|----------------|-1-1-1-1-1-1-^1---*|
|----------------|-2-0------------|-0-0-0-0-0-0-^0---*|
|----------------|-----2----------|-2-2-2-2-2-2-^2---*|
|----------------|---------0------|-0-0-0-0-0-0-^0---*|




Duration Legend
---------------
W - whole; H - half; Q - quarter; E - 8th; S - 16th; T - 32nd; X - 64th; a - acciaccatura
+ - note tied to previous; . - note dotted; .. - note double dotted
Uncapitalized letters represent notes that are staccato (1/2 duration)
Irregular groupings are notated above the duration line
Duration letters will always appear directly above the note/fret number it represents the
duration for.  Duration letters with no fret number below them represent rests.  Multi-
bar rests are notated in the form Wxn, where n is the number of bars to rest for.  Low
melody durations appear below the staff

Tablature Legend
----------------
 h   - hammer-on
 p   - pull-off
 b   - bend
 pb  - pre-bend
 r   - bend release (if no number after the r, then release immediately)
 /\  - slide into or out of (from/to "nowhere")
 s   - legato slide
 S   - shift slide
 - natural harmonic
[n]  - artificial harmonic
n(n) - tapped harmonic
 ~   - vibrato
 tr  - trill
 T   - tap
 TP  - trem. picking
 PM  - palm muting
\n/  - tremolo bar dip; n = amount to dip
 \n  - tremolo bar down
 n/  - tremolo bar up
/n\  - tremolo bar inverted dip
 =   - hold bend; also acts as connecting device for hammers/pulls
 <> - volume swell (louder/softer)
 x   - on rhythm slash represents muted slash
 o   - on rhythm slash represents single note slash

comments
We did not receive enough feedback on this tab! Please rate:
print report bad tab
1 2 3 4 5
I want to post or [tab]
guest
You may want to rate the tab now too:
select rating
Please do not post tabs as comments. Select "correction" instead!