Oops, an error
Loading. Please wait.

Luper Tab

1,305 views 9 this week
no commentswrite comment
1 2 3 4 5
please rate
add to favorites
launch autoscroll
font size
0
reset
how to read this tab
guitar tuner
Autoscroll
slow
fast
+/-
esc
set tempo
stop
Help us to improve Ultimate-Guitar.com Take our survey!
×
Author
Difficulty
novice
Earl Sweatshirt
"Luper"
EARL
2010

Simple song. Can be played with
2 guitars n sounds better.

Standard Tuning (e B G D A E)

Intro/Verse (played throughout the whole song)

e---------------------------7-7-7--|
B----7-7-----7-7-7--7-7----7---7---|
G--7--7-6---6---6-7--7-7-7---------|
D---------7------------------------|
A----------------------------------|
E----------------------------------|

This is played after the 4th time intro is played.
Play anyone of em. Whichever one you're comfortable with.

e--0~--    e--0~--    e--0~--|
B--5~--    B--5~--    B--5~--|
G--6~-- or G--6~-- or G--6~--|
D------    D--7~--    D--7~--|
A------    A------    A--7~--|
E------    E------    E------|

That's it.

Enjoy

Tabbed by X8<-(Triggar8)->8X
Suggest correction
Give kudos to tab author, rate the tab!
1 2 3 4 5
comments
print report bad tab
guest
You may want to rate the tab now too:
select rating
Wanna post a correction for this tab? Suggest correction