Oops, an error
Loading. Please wait.

Orange Juice Bass Tab

5,670 views 1 this week
1 commentread comment
1 2 3 4 5
please rate
add to favorites
launch autoscroll
font size
0
reset
guitar tuner
Autoscroll
slow
fast
+/-
esc
set tempo
stop
Help us to improve Ultimate-Guitar.com Take our survey!
×
Author
Difficulty
intermediate
----------------------------------------------------------------------------
			     ORANGE JUICE - EarlWolf
----------------------------------------------------------------------------

Tabbed By : MARIO SBARDELLA
e-mail: MARIOSBARDELLA@HOTMAIL.COM

Tuning: E A D G

**you need to listen for the breaks**

  0:13                                            (Earl Verse)            *
G|-------------------------------------------------------------------------|
D|---------------------3-5--7-8---------3-5----------------------------3-5-|
A|-------------------------------------------------------3-3---------3-----|
E|--3-3-3------13-3-3-----------3-3-3-------3-3-3--3-3-3-----1-3-3-3-------|
  
  hand em tracks...        *lost an erection
G|-------------------------------------------------------------------------|
D|-----------------------35-------------------3-5--------------------------|
A|-------3-3---------3333-------3-3---------3-----------3-3---------3-3----|
E|-3-3-3-----1-3-3-3-------3-3-3-----1-3-3-3-------3-3-3-----1-3-3-3-----1-|
  let the crowd...      **                   * please get out your seat
G|-------------------------------------------------------------------------|
D|-3-5---------------------------------------------------------------------|
A|-----------3-3-----------------3-3---------3---------33333333------------|
E|-----3-3-3-----1-3-3-3---3-3-3-----1-3-3-3---33333333--------33333333----|

G|-------------------------------------------------------------------------|
D|------7855555535--------55555535-------3------------------------------35-|
A|333333----------33333333--------3333333---------33333333--------333333---|
E|----------------------------------------33333333--------33333333---------|
                                     (Tylers Verse)           ****
G|-------------------------------------------------------------------------|
D|55555535------35555555535--------3----------------------3-5-----3-5------|
A|--------333333-----------33333333---------3-3---------3------------------|
E|----------------------------------1-3-3-3-----1-3-3-3---------------3----|
                                                       **
G|-------------------------------------------------------------------------|
D|----------------------------------------35-------------------------------|
A|3-3---------3-3---------3-3---------3333----3-3------3-------3-3-------3-|
E|----1-3-3-3-----1-3-3-3-----1-3-3-3-------3-----1-3-3--3-3-3----13-3-3---|
                                                    **
G|-------------------------------------------------------------------------|
D|-------------------------------------------------------------------------|
A|3--------3-3---------3-3---------3-3---------3-3--------------33333333---|
E|-1-3-3-3-----1-3-3-3-----1-3-3-3-----1-3-3-3-----1----33333333-----------|

G|-------------------------------------------------------------------------|
D|--------------7855555535--------55555535-------3-------------------------|
A|--------333333----------33333333--------3333333---------33333333---------|
E|33333333----------------------------------------33333333--------33333333-|
                                 *overweight vegetarians
G|-------------------------------------------------------------------------|
D|------3555555535--------35555555-----------------------------------------|
A|333333----------33333333-------------------------------------------------|
E|-------------------------------------------------------------------------|


| /  slide up
| \  slide down
| h  hammer-on
| p  pull-off
| ~  vibrato
| +  harmonic
| x  Mute note
============================================================================
Suggest correction new What's this?
You can suggest a correction to this tab. Community and Mods will review your correction and vote to approve or reject it.
comments
We did not receive enough feedback on this tab! Please rate:
print report bad tab
1 2 3 4 5
1 comment total.
0 reply
Brunner39 18 wrote on July 11 2012, 11:16 am

Wow this is awesome

guest
You may want to rate the tab now too:
select rating
Please do not post tabs as comments. Select "correction" instead!