Oops, an error
Loading. Please wait.

Feeding Frenzy Tab

1,127 views 1 this week
no commentswrite comment
1 2 3 4 5
please rate
add to favorites
launch autoscroll
font size
0
reset
how to read this tab
guitar tuner
Tab Pro tools
  • play this tab
  • loop segment
  • change instrument
  • show fretboard
  • metronome
×
Best way to learn
"Feeding Frenzy"
Autoscroll
slow
fast
+/-
esc
set tempo
stop
Contributor
Artist: Early Man
Song: Feeding Frenzy
Album: Closing In

Tabbed By: Scott
Email: windowpane71@hotmail.com


Tuning: Standard

There are a few minor variations that have been left but everything else is there.


Intro
E|-------------------------------------------------------------------|
B|-------------------------------------------------------------------|
G|--------------------------------------------------------5----------|
D|--------------------------------------------------------5-------6--|
A|--1-----1---1-----1-----1---1-----1-----1---1-----1p0---3-1p0---6--|
E|----0-0---0---0-0---0-0---0---0-0---0-0---0---0-0-----0-------0-4--|
  PM  . .   .   . .   . .   .   . .   . .   .   . .     .       .

Verse
E|-----------------------------------------------------------------------------------|
B|-----------------------------------------------------------------------------------|
G|------------------------------------------------------------------------5----------|
D|------------------------------------------------------------------------5-------6--|
A|--1p0-----1p0---1p0-----1p0-----1p0---1p0-----1p0-----1p0---1-----1p0--3-1p0----6--|
E|------0-0-----0-----0-0-----0-0-----0-----0-0-----0-0-----0---0-0-----0-------0-4--|
  PM    . .     .     . .     . .     .     . .     . .     .   . .     .       .

Chorus                                                            
E|------------------------------------------------------|--------|
B|------------------------------------------------------|--------|
G|--------------7/9---10---9-------3------3-------------|--------|
D|------2-----2-7/9---10---9-------3------3--2h3---5-3--|--7--5--|
A|------2-----2-5/7-0--8-0-7--1111-1-1111-1------0------|--7--5--|
E|--0-0-0-0-0-0-----------------------------------------|--5--3--|
  PM. .   . .       .    .    ....   ....


E|---------------------------------------------------------------------------|
B|---------------------------------------------------------------------------|
G|------------8/7---------------7/5---------------5/4---------------4/3------|
D|------------8/7---------------7/5---------------5/4---------------4/3------|
A|--3p2p0-0-0-6/5-0-0-3p2p0-0-0-5/3-0-0-3p2p0-0-0-3/2-0-0-3p2p0-0-0-2/1-0-0--|
E|---------------------------------------------------------------------------|
  PM      . .     . .       . .     . .       . .     . .       . .     . .

                                        Does this ending once 2nd time you play this riff
E|-------------------------------------|---------------|
B|-------------------------------------|---------------|
G|------------8/7---5-----7---6---5----|--5---6---7----|
D|------------8/7---5-----7---6---5----|--5---6---7----|
A|--3p2p0-0-0-6/5-0-3-0-0-5-0-4-0-3-0--|--3-0-4-0-5-0--|
E|-------------------------------------|---------------|
  PM      . .     .   . .   .   .   .


E|----------------------------------------------------------------|
B|----------------------------------------------------------------|
G|-------------------------------------------------8/7-5-----5/7--|
D|-----------------------------3-------------------8/7-5-----5/7--|
A|--0-000-000-000-00-6/5-3-0-0---0-000-000-000-00--6/5-3-0-0-3/5--|
E|----------------------------------------------------------------|
  PM. ... ... ... ..       . .   . ... ... ... ..        . .


E|-----|
B|-----|
G|-----|
D|--2--|
A|--2--|
E|--0--|

Ending Lead
E|--------------------------------------------------|
B|--------------------------------------------------|
G|--5-4---4-----------------------------------------|
D|------7---7-5-7-5-4-5-4-2-4-2-0-2-0---0-----------|
A|------------------------------------4---4-2-0-2~--|
E|--------------------------------------------------|
  PM. . . . . . . . . . . . . . . . . . . . . . .

End
E|----------------------|
B|----------------------|
G|----------------------|
D|--2-2-2---2-2-2-------|
A|--2-2-2---2-2-2-------|
E|--0-0-0---0-0-0--12/--|
  PM. . .   . . .
comments
We did not receive enough feedback on this tab! Please rate:
print report bad tab
1 2 3 4 5
I want to post or [tab]
guest
You may want to rate the tab now too:
select rating
Please do not post tabs as comments. Select "correction" instead!