Oops, an error
Loading. Please wait.

Shell Tab

7 views 1 this week
no commentswrite comment
1 2 3 4 5
3 more votes to show rating
add to favorites
launch autoscroll
font size
0
reset
how to read this tab
guitar tuner
Autoscroll
slow
fast
+/-
esc
set tempo
stop
Help us to improve Ultimate-Guitar.com Take our survey!
×
Author
Difficulty
intermediate
Tabbed by: Blameshift

[Intro and during verse]
e|---------7-------|----------7-------|----------7---|-5----5---------------|
B|----7------7--7--|-----7------7--7--|-----7------7-|----7---7--7----------|
G|--4---4----------|---4---4----------|--4----4------|----------------------|
D|-----------------|------------------|--------------|----------------------|
A|-----------------|------------------|--------------|----------------------|
E|-----------------|------------------|--------------|----------------------|

[Intro - second guitar, played over the picking part]
e|-------|---------|----------|----------------------------------------------|
B|-------|---------|----------|----------------------------------------------|
G|-------|---------|----------|----------------------------------------------|
D|---9~--|------5--|---4------|---9------9-----------------------------------|
A|---9~--|------5--|---4------|---9------9-x8--------------------------------|
E|---7~--|------3--|---2------|---7------7-----------------------------------|

[Pre-verse-chorus] 
e|--------------|-------5b-5b-5b-5b---|-------------|-----------------------|
B|--------------|---------------------|-------------|-------6b-6b-6b-6b-----|
G|--------------|--7-7----------------|-------------|--7-7------------------|
D|--9-9----5-5--|--7-7----------------|-9-9----5-5--|--7-7------------------|
A|--9-9----5-5--|--5-5----------------|-9-9----5-5--|--5-5------------------|
E|--7-7----3-3--|---------------------|-7-7----3-3--|-----------------------|

e|--------------|-------5b-5b-5b-5b--|--------|-----------------------------|
B|--------------|--------------------|--------|-----------------------------|
G|--------------|--7-7---------------|--------|-----------------------------|
D|--9-9----5-5--|--7-7---------------|---5----|--8--------------------------|
A|--9-9----5-5--|--5-5---------------|---5-x8-|--9--x4----------------------|
E|--7-7----3-3--|--------------------|---3----|--6--------------------------|
 
[Verse this is the rhytm guitar. For lead just play the intro]
e|---------|-----------|--------------|-----------|--------------------------|
B|---------|-----------|--------------|-----------|--------------------------|
G|---------|-----------|--------------|-----------|--------------------------|
D|--9-9-9--|--7-9-9-9--|---9-9-5-5-5--|--5-7-7-7--|--7-9-9-9-----------------|
A|--9-9-9--|--7-9-9-9--|---9-9-5-5-5--|--5-7-7-7--|--7-9-9-9-----------------|
E|--7-7-7--|--5-7-7-7--|---7-7-3-3-3--|--3-5-5-5--|--5-7-7-7-----------------|
    . . .     . . . .      . . . . .     . . . .     . . . . 

[Pre-chorus]
e|---------|-----------|--------------|-----------|------|-------------|------------|
B|---------|-----------|--------------|-----------|------|-------------|------------|
G|---------|-----------|--------------|-----------|------|-------------|------------|
D|--9-9-9--|--7-9-9-9--|---9-9-5-5-5--|--5-7-7-7--|--7-7-|-9--9--9-9---|-9------7---| 
A|--9-9-9--|--7-9-9-9--|---9-9-5-5-5--|--5-7-7-7--|--7-7-|-9--9--9-9-x2|-9-x4---7-x4|
E|--7-7-7--|--5-7-7-7--|---7-7-3-3-3--|--3-5-5-5--|--5-5-|-7--7--7-7---|-7------5---|
    . . .    . . . .     . . . . .    . . . .    . .        . .
e|----------|--------------|-----------|------------|-------------|----------------|
B|----------|--------------|-----------|------------|-------------|----------------|
G|----------|--------------|-----------|------------|-------------|----------------|
D|-9--9-9-9-|--5--5-5-5-5--|-9--9-9-9--|-7--7-7-7---|-4-4--4-4----|-5---5-5-5---8~-|
A|-9--9-9-9-|--5--5-5-5-5--|-9--9-9-9--|-7--7-7-7---|-4-4--4-4-x4-|-5---5-5-5---9~-|
E|-7--7-7-7-|--3--3-3-3-3--|-7--7-7-7--|-5--5-5-5---|-2-2--2-2----|-3---3-3-3---6~-|
        .                       .                          . .
[Chorus]
e|--------------|-------5b-5b-5b-5b---|-------------|-----------------------|
B|--------------|---------------------|-------------|-------6b-6b-6b-6b-----|
G|--------------|--7-7----------------|-------------|--7-7------------------|
D|--9-9----5-5--|--7-7----------------|-9-9----5-5--|--7-7------------------|
A|--9-9----5-5--|--5-5----------------|-9-9----5-5--|--5-5------------------|
E|--7-7----3-3--|---------------------|-7-7----3-3--|-----------------------|

e|--------------|-------5b-5b-5b-5b--|--------|-----------------------------|
B|--------------|--------------------|--------|-----------------------------|
G|--------------|--7-7---------------|--------|-----------------------------|
D|--9-9----5-5--|--7-7---------------|---5----|--8--------------------------|
A|--9-9----5-5--|--5-5---------------|---5-x8-|--9--x4----------------------|
E|--7-7----3-3--|--------------------|---3----|--6--------------------------|

[Verse 2  Listen here and play the correct amount by ear]
e|--------14----------14--|-----------------------------------------------|
B|--12--------15--17------|---15--17----12---15-14----15-14----15-----12--|
G|------------------------|------------------------14-------14-----14-----| (Play this one and a half time)
D|------------------------|-----------------------------------------------|
A|------------------------|-----------------------------------------------|
E|------------------------|-----------------------------------------------|

[Pre-chorus]
e|-------------|------------|
B|-------------|------------|
G|-------------|------------|
D|-9--9--9-9---|-9------7---| 
A|-9--9--9-9-x2|-9-x4---7-x4|
E|-7--7--7-7---|-7------5---|
   .  .  
e|----------|--------------|-----------|------------|-------------|----------------|
B|----------|--------------|-----------|------------|-------------|----------------|
G|----------|--------------|-----------|------------|-------------|----------------|
D|-9--9-9-9-|--5--5-5-5-5--|-9--9-9-9--|-7--7-7-7---|-4-4--4-4----|-5---5-5-5---8~-|
A|-9--9-9-9-|--5--5-5-5-5--|-9--9-9-9--|-7--7-7-7---|-4-4--4-4-x4-|-5---5-5-5---9~-|
E|-7--7-7-7-|--3--3-3-3-3--|-7--7-7-7--|-5--5-5-5---|-2-2--2-2----|-3---3-3-3---6~-|
        .                       .                       . .
[Chorus]
e|--------------|-------5b-5b-5b-5b---|-------------|-----------------------|
B|--------------|---------------------|-------------|-------6b-6b-6b-6b-----|
G|--------------|--7-7----------------|-------------|--7-7------------------|
D|--9-9----5-5--|--7-7----------------|-9-9----5-5--|--7-7------------------|
A|--9-9----5-5--|--5-5----------------|-9-9----5-5--|--5-5------------------|
E|--7-7----3-3--|---------------------|-7-7----3-3--|-----------------------|

e|--------------|-------5b-5b-5b-5b--|--------|-----------------------------|
B|--------------|--------------------|--------|-----------------------------|
G|--------------|--7-7---------------|--------|-----------------------------|
D|--9-9----5-5--|--7-7---------------|---5----|--8--------------------------|
A|--9-9----5-5--|--5-5---------------|---5-x8-|--9--x4----------------------|
E|--7-7----3-3--|--------------------|---3----|--6--------------------------|

[Break]
e|---------7-------|----------7-------|----------7---|-5----5---------------|
B|----7------7--7--|-----7------7--7--|-----7------7-|----7---7--7----------|
G|--4---4----------|---4---4----------|--4----4------|----------------------|
D|-----------------|------------------|--------------|----------------------|
A|-----------------|------------------|--------------|----------------------|
E|-----------------|------------------|--------------|----------------------|

[Intro - second guitar, played over the picking part]
e|-----------------------------------------------------------------------|
B|-----------------------------------------------------------------------|
G|-----------------------------------------------------------------------|
D|---9--------5-----4---------9------9-----------------------------------|
A|---9--------5-----4---------9------9-x8--------------------------------|
E|---7--------3-----2---------7------7-----------------------------------|

[Bridge rhytm guitar, figure the rhytm out yourself. I'm also not 100% sure that this is correct]
e|-------|--------|---|-----------|------------|-------------|-----------------|
B|-------|--------|---|-----------|------------|-------------|-----------------|
G|-------|--------|---|-----------|------------|-------------|-----------------|
D|--9----|--5 ----|-2-|--4--5--7--|-9----------|-7--9--11----|--9--11--12------|
A|--9-x16|--5-x16-|-2-|--4--5--7--|-9---11-12--|-5--7--9-----|--7--9---10------|
E|--7----|--3-----|-0-|--2--3--5--|-7---9--10--|-------------|-----------------|
                  .
e|-------------|----------------------------------------------------------|
B|-------------|----------------------------------------------------------|
G|-------------|----------------------------------------------------------|
D|--11-12--14--|---12--14--16---------------------------------------------|
A|--9--10--12--|---10--12--14---------------------------------------------|
E|-------------|----------------------------------------------------------|

[Bridge lead guitar, figure out the rhytm yourself]
e|-------|----------|-----------|--------------|------------------------------|
B|--12---|-15-14----|-15-14-----|--17--15--14~-|--14b15r14b15r14b15r14--------|
G|-------|-------14-|-------14--|--------------|-----------------------------|
D|-------|----------|-----------|--------------|-----------------------------|
A|-------|----------|-----------|--------------|-----------------------------|
E|-------|----------|-----------|--------------|-----------------------------|

e|------|-----|---14-------|-14------|-14-------|-17---------------------------|
B|--12--|-14--|------15-14-|---15-14-|----15-14-|----17--15-14-----------------|
G|------|-----|------------|---------|----------|-----------------------------|
D|------|-----|------------|---------|----------|-----------------------------|
A|------|-----|------------|---------|----------|-----------------------------|
E|------|-----|------------|---------|----------|-----------------------------|

[Chorus]
e|--------------|-------5b-5b-5b-5b---|-------------|-----------------------|
B|--------------|---------------------|-------------|-------6b-6b-6b-6b-----|
G|--------------|--7-7----------------|-------------|--7-7------------------|
D|--9-9----5-5--|--7-7----------------|-9-9----5-5--|--7-7------------------|
A|--9-9----5-5--|--5-5----------------|-9-9----5-5--|--5-5------------------|
E|--7-7----3-3--|---------------------|-7-7----3-3--|-----------------------|

e|--------------|-------5b-5b-5b-5b--|--------|-----------------------------|
B|--------------|--------------------|--------|-----------------------------|
G|--------------|--7-7---------------|--------|-----------------------------|
D|--9-9----5-5--|--7-7---------------|---5----|--8--------------------------|
A|--9-9----5-5--|--5-5---------------|---5-x8-|--9--x4----------------------|
E|--7-7----3-3--|--------------------|---3----|--6--------------------------|


************************************

| ~  Vibrato
| x  Dead note
| b  Bend
| .  Staccato
| r  Release

************************************
Suggest correction
Give kudos to tab author, rate the tab!
1 2 3 4 5
comments
print report bad tab
guest
You may want to rate the tab now too:
select rating
Wanna post a correction for this tab? Suggest correction