Oops, an error
Loading. Please wait.

Not Afraid Tab

version 2
version 2

Whole song

Interactive

458 views 1 this week
no commentswrite comment
1 2 3 4 5
please rate
add to favorites
launch autoscroll
font size
0
reset
how to read this tab
guitar tuner
Autoscroll
slow
fast
+/-
esc
set tempo
stop
Help us to improve Ultimate-Guitar.com Take our survey!
×
Author
Difficulty
intermediate
verse
first guitar
e(--------------------------------------------------)
b(--------------------------------------------------)
g(--------------------------------------------------)
d(--------------------------77-77-77-77-66-66-66-66-)
a(--99-99-99-99-44-44-44-44-------------------------)
D(--------------------------------------------------)

second guitar                                                   (x4)
e(-------------------------------------------------------)(---------)
b(------------------------------10-10-10-10-10-9-9-9-9-9-)(---------)
g(--11-11-11-11-11-11-11-11-8-8--------------------------)(---------)
d(-------------------------------------------------------)(--4-4-44-)
a(-------------------------------------------------------)(--4-4-44-)
D(-------------------------------------------------------)(--4-4-44-)

chorus
e(--------------------------------)
b(--------------------------------)
g(--------------------------------)
d(--444-4-44-4-444-777-7-77-7-999-)
a(--444-4-44-4-444-777-7-77-7-999-)
D(--444-4-44-4-444-777-7-77-7-999-)

breakdown
e(---------------------------------------------------------)
b(---------------------------------------------------------)
g(---------------------------------------------------------)
d(----11-13-14-13-11-9-11-9-11---11-13-14-13-11-9-11-9-7-4-)
a(--9--------------------------9---------------------------)
D(---------------------------------------------------------)

breakdown continued
e(------------------------------------------------)
b(------------------------------------------------)
g(--------------------------12-1212-12-1212-12-12-)
d(----11-13-14-13-11-9-11-9-12-1212-12-1212-12-12-)
a(--9---------------------------------------------)
D(------------------------------------------------)

breakdown continued
e(--9 harmonic-----------------------)
b(-----------------------------------)
g(-----------------------------------)
d(-----------------------------------)
a(-----------------------------------)
D(--44444444444444444444444444444444-)
  pm................................

breakdown continued
e(------------------------------------------)
b(------------------------------------------)
g(------------------------------------------)
d(------------------------------------------)
a(--444-4-44-4-55555555-444-4-44-4-55555555-)
D(--444-4-44-4-55555555-444-4-44-4----------)
Suggest correction
Give kudos to tab author, rate the tab!
1 2 3 4 5
comments
print report bad tab
guest
You may want to rate the tab now too:
select rating
Please do not post tabs as comments. Select "correction" instead!