Oops, an error
Loading. Please wait.

This World Tab

213 views 1 this week
no commentswrite comment
1 2 3 4 5
3 more votes to show rating
add to favorites
launch autoscroll
font size
0
reset
how to read this tab
guitar tuner
Autoscroll
slow
fast
+/-
esc
set tempo
stop
Help us to improve Ultimate-Guitar.com Take our survey!
×
Band- Earshot
Song- This World

Tuning: Drop D (dadgbe)

Intro/Verse:
|-----------------------------------------------------|
|-----------------------------------------------------|
|-9(x12)-13(x12)-9(x12)-5(x12)------------------------|
|-9(x12)-13(x12)-9(x12)-5(x12)------------------------|
|-7(x12)-11(x12)-7(x12)-3(x12)------------------------|
|-7(x12)-11(x12)-7(x12)-3(x12)------------------------|

Chorus:
|-----------------------------------------------------|
|-----------------------------------------------------|
|-----------------------------------------------------|
|-11(x16)-13(x3)-15(x3)-12(x2)------------------------|
|-9-(x16)-11(x3)-13(x3)-12(x2)------------------------|
|-9-(x16)-11(x3)-13(x3)-10(x2)------------------------|

Interlude:
|------------------------------------------------------------------|
|------------------------------------------------------------------|
|------------------------------------------------------------------|
|---9-99-9-99-9-99-9-99-9999--13-1313-13-1313-13-1313-13-1313-1313-|
|---7-77-7-77-7-77-7-77-7777--11-1111-11-1111-11-1111-11-1111-1111-|
|---7-77-7-77-7-77-7-77-7777--11-1111-11-1111-11-1111-11-1111-1111-|
p.m.  ..   ..   ..   ..          ....    ....    ....    ....

Play interlude for the next part without the palm mutes
Suggest correction
Give kudos to tab author, rate the tab!
1 2 3 4 5
comments
print report bad tab
guest
You may want to rate the tab now too:
select rating
Wanna post a correction for this tab? Suggest correction