Oops, an error
Loading. Please wait.

Wait Tab

version 3
version 3

Whole song

Interactive

5,336 views 3 this week
no commentswrite comment
1 2 3 4 5
excellent!
x 5
add to favorites
launch autoscroll
font size
0
reset
how to read this tab
guitar tuner
Tab Pro tools
  • play this tab
  • loop segment
  • change instrument
  • show fretboard
  • metronome
×
Best way to learn
"Wait"
Autoscroll
slow
fast
+/-
esc
set tempo
stop
Contributor
Band - Earshot
Song - Wait

Tuning: eb Bb Gb Db Ab Db

Intro:
eb|----------------------------------|    |----------------------------------|
Bb|----------------------------------|    |----------------------------------|
Gb|----------------------------------|    |----------------------------------|
Db|--x--0-00--x--0-00--10/12-0-------| x3 |--x--0-00--x--0-00--------------0-|
Ab|--x--0-00--x--0-00--10/12-0-------|    |--x--0-00--x--0-00--------------0-|
Db|--8--0-00--1--0-00--10/12-0-------|    |--8--0-00--1--0-00--10/12-13-12-0-|

eb|----------------------------------|    |----------------------------------|
Bb|----------------------------------|    |----------------------------------|
Gb|----------------------------------|    |----------------------------------|
Db|--x--0-00--x--0-00--10/12-0-------| x3 |--x--0-00--x--0-00--------------0-|
Ab|--x--0-00--x--0-00--10/12-0-------|    |--x--0-00--x--0-00--------------0-|
Db|--8--0-00--1--0-00--10/12-0-------|    |--8--0-00--1--0-00--10/12-13-12-0-|

Verse:
	      (Guitar 1)
eb|----------------------------------|
Bb|----------------------------------| 
Gb|----------------------------------|
Db|----------------------------------| repeat
Ab|----------------------------------|
Db|--8--00-0--1--00-0--3/5-0---------|
 pm  .  .. .  .  .. .  . . .

	      (Guitar 2)
eb|----------------------------------|
Bb|----------------------------------| 
Gb|--7777-x-7777-x-7-----------------|
Db|--xxxx-x-xxxx-x-x-----------------| repeat
Ab|--5555-x-5555-x-5-----------------|
Db|----------------------------------|

Chorus:
	      (Guitar 1)
eb|----------------------------------|
Bb|----------------------------------|
Gb|----------------------------------|
Db|--0--3--8--10---------------------| repeat
Ab|--0--3--8--10---------------------|
Db|--0--3--8--10---------------------|

	      (Guitar 2)
eb|----------------------------------|
Bb|----------------------------------|
Gb|--7--10-15--17--------------------|
Db|----------------------------------| repeat
Ab|--5--8--13--15--------------------|
Db|----------------------------------|

Verse:
	      (Guitar 1)
eb|----------------------------------|
Bb|----------------------------------| 
Gb|----------------------------------|
Db|----------------------------------| repeat
Ab|----------------------------------|
Db|--8--00-0--1--00-0--3/5-0---------|
 pm  .  .. .  .  .. .  . . .

	      (Guitar 2)
eb|----------------------------------|
Bb|----------------------------------| 
Gb|--10/7--10------------------------|
Db|----------------------------------| repeat
Ab|--8/-5--8-------------------------|
Db|----------------------------------|

Chorus:
	      (Guitar 1)
eb|----------------------------------|
Bb|----------------------------------|
Gb|----------------------------------|
Db|--0--3--8--10---------------------| repeat
Ab|--0--3--8--10---------------------|
Db|--0--3--8--10---------------------|

	      (Guitar 2)
eb|----------------------------------|
Bb|----------------------------------|
Gb|--7--10-15--17--------------------|
Db|----------------------------------| repeat
Ab|--5--8--13--15--------------------|
Db|----------------------------------|


Bridge:
    (Guitar 1)
eb|-----------|
Bb|-----------| 
Gb|-----------|
Db|--0--8--7--|
Ab|--0--8--7--|
Db|--0--8--7--|

Solo:
				(Guitar 2)
eb|-----------------------------------------------------------------------------|
Bb|-----10-------10--------10----10--10------10-------10--------10------10------| 
Gb|--7----7-7/9-----9--10-----10---10-----7----7-7/9-----9--10-----10-9----9----|
Db|-----------------------------------------------------------------------------|
Ab|-----------------------------------------------------------------------------|
Db|-----------------------------------------------------------------------------|


eb|-----------------------------------------------------------------------------|
Bb|-----10-------10--------10----10--10------10-------10--------10------10------| 
Gb|--7----7-7/9-----9--10-----10---10-----7----7-7/9-----9--10-----10-9----9--7~|
Db|-----------------------------------------------------------------------------|
Ab|-----------------------------------------------------------------------------|
Db|-----------------------------------------------------------------------------|

eb|------------------------|    |---------------|
Bb|------------------------|    |---------------|
Gb|------------------------|    |---------------|
Db|------------------------| x3 |---------------|
Ab|--1p0-00--1p0-00--1p0-0-|    |--0000-x-0000--|
Db|--1p0-00--1p0-00--1p0-0-|    |--0000-x-0000--|
 pm  . . ..  . . ..  . . .         ....   ....

Chorus:
	      (Guitar 1)
eb|----------------------------------|
Bb|----------------------------------|
Gb|----------------------------------|
Db|--0--3--8--10---------------------| repeat
Ab|--0--3--8--10---------------------|
Db|--0--3--8--10---------------------|

	      (Guitar 2)
eb|----------------------------------|
Bb|----------------------------------|
Gb|--7--10-15--17--------------------|
Db|----------------------------------| repeat
Ab|--5--8--13--15--------------------|
Db|----------------------------------|

Outro:
eb|----------------------------------|    |---------------|
Bb|----------------------------------|    |---------------|
Gb|----------------------------------|    |---------------|
Db|--x--0-00--x--0-00--10/12-0-------| x3 |---------------|
Ab|--x--0-00--x--0-00--10/12-0-------|    |--0000-x-0000--|
Db|--8--0-00--1--0-00--10/12-0-------|    |--0000-x-0000--|
                                         pm  ....   ....
comments
print report bad tab
I want to post or [tab]
guest
You may want to rate the tab now too:
select rating
Please do not post tabs as comments. Select "correction" instead!