Oops, an error
Loading. Please wait.

We Fall We Stand Tab

version 2
version 2

Whole song

137 views 1 this week
no commentswrite comment
1 2 3 4 5
please rate
add to favorites
launch autoscroll
font size
0
reset
how to read this tab
guitar tuner
Autoscroll
slow
fast
+/-
esc
set tempo
stop
Help us to improve Ultimate-Guitar.com Take our survey!
×
Difficulty
Tuning
novice
C# G# C# F# A# D#
---------------------------------------------------------------------------
WE FALL WE STAND - Earshot
---------------------------------------------------------------------------
Tabbed by: Shinsen88
Email: shinsen88@yahoo.com

Tuning:C#G#C#F#A#D#

Fairly simple song, but awesome nonetheless. The other tab was missing 
some stuff and was in the wrong tuning, so here’s a version I think 
is about 99.9% correct.

*BASS INTRO*

INTRO
D#|------------------------------------------------------------------------|
A#|------------------------------------------------------------------------|
F#|------------------------------------------------------------------------|
C#|-0-1-1-1-1-0-2h3p2--0-1-1-1-1-0-3p2--0-1-1-1-1-0-2h3p2--0-1-1-1-1-0-3-4-|
G#|-0-1-1-1-1-0-2h3p2--0-1-1-1-1-0-3p2--0-1-1-1-1-0-2h3p2--0-1-1-1-1-0-3-4-|
C#|-0-1-1-1-1-0-2h3p2--0-1-1-1-1-0-3p2--0-1-1-1-1-0-2h3p2--0-1-1-1-1-0-3-4-|

VERSE (same as intro, but palm muted)
D#|------------------------------------------------------------------------|
A#|------------------------------------------------------------------------|
F#|------------------------------------------------------------------------|
C#|-0-1-1-1-1-0-2h3p2--0-1-1-1-1-0-3p2--0-1-1-1-1-0-2h3p2--0-1-1-1-1-0-3-4-|
G#|-0-1-1-1-1-0-2h3p2--0-1-1-1-1-0-3p2--0-1-1-1-1-0-2h3p2--0-1-1-1-1-0-3-4-|
C#|-0-1-1-1-1-0-2h3p2--0-1-1-1-1-0-3p2--0-1-1-1-1-0-2h3p2--0-1-1-1-1-0-3-4-|
    . . . . . . . . .  . . . . . . . .  . . . . . . . . .  . . . . . . . .

CHORUS
D#|---------------------------------------|
A#|---------------------------------------|
F#|-----------------3-3-3-3-3-3-3-3-------|
C#|-0-0-0-0-0-0-0-0-3-3-3-3-3-3-3-3-2--1~-|
G#|-0-0-0-0-0-0-0-0-1-1-1-1-1-1-1-1-2--1~-|
C#|-0-0-0-0-0-0-0-0-----------------2~-1~-|

OUTRO (listen for rhythm, repeat as needed)
D#|-------------|
A#|-------------|
F#|-------------|
C#|-------------|
G#|-8-8-6-6-6-5-|
C#|-------------|

D#|-------------------------------------------------------------|
A#|-------------------------------------------------------------|
F#|-------------------------------------------------------------|
C#|-------------------------------------------------------------|
G#|-5-5-5-5-3-3-3-8-8-8-8-6-6-6-5---5-5-5-5-3-3-3-6-6-6---6-8-5-|
C#|-------------------------------------------------------------|



| .  palm mute
| “  tremolo pick
| *  pinch harmonic
| ~  let note ring
| /  slide up
| \  slide down
| h  hammer-on
| p  pull-off
| v  vibrato
| +  natural harmonic
| x  mute note
=============================================================
Suggest correction
Give kudos to tab author, rate the tab!
1 2 3 4 5
comments
print report bad tab
guest
You may want to rate the tab now too:
select rating
Please do not post tabs as comments. Select "correction" instead!