Oops, an error
Loading. Please wait.

Coda Maestoso In F Flat Minor Tab

7,384 views 6 this week
8 commentsread comments
1 2 3 4 5
x 8
add to favorites
launch autoscroll
font size
0
reset
how to read this tab
guitar tuner
Autoscroll
slow
fast
+/-
esc
set tempo
stop
Help us to improve Ultimate-Guitar.com Take our survey!
×
Author
main riff throughout whole song, played very slow

e|----------------------------------------------------------|
B|----------------------------------------------------------|
G|-------9---------5-----------2----------2-----------------|
D|-----9---------5---5-------2---2----0h2---2---------------|
A|---7-----///-3-------///-0--------0----------0h2----------|
E|-0-----------------------------------------------3b-------|
           ^                                       ^
       slow slide                             small bend
Suggest correction
comments
print report bad tab
8 comments total. Showing first comments.
0 reply
swave75 382 Sep 07, 2011 07:13 PM

Awesome!!!!

0 reply
Krizpyy 10 Apr 08, 2012 07:29 AM

Thanks allot, but what about the solo?

0 reply
Hinja 10 May 26, 2012 05:36 AM

Tuning: drop D

main riff
e|---------------------------------------------------------------------------|
B|---------------------------------------------------------------------------|
G|----------------------------------------------------5----------------------|
D|------------------------------------------------5h7---7--------------------|
A|-3-/-5---5---5-5---5-5----5-/-8---8---8-8---8-8----------------------------|
D|-0---0-0-0-0-0-0-0-0-0----0---0-0-0-0-0-0-0-0-0----------------------------|
variation to the main riff (just repeat the first half)
e|---------------------------------------------------------------------------|
B|---------------------------------------------------------------------------|
G|--------------------------------------------------------5-----5-----5------|
D|--------------------------------------(solo)----7-7p5-5---5h7---7-7--------|
A|-3-/-5---5---5-5---5-5-----------------------------------------------------|
D|-0---0-0-0-0-0-0-0-0-0-----------------------------------------------------|

e|---------------------------------------x-x---------------------------------|
B|--------6~6-3-----------------6B-------x-x---------------------------------|
G|-9^10---------555-0-0-0h2-------7-5-7--x-x-----5-5-----5-------------------|
D|---------------------------------------x-x-5-7-----7-7---------------------|
A|---------------------------------------x-x---------------------------------|
D|---------------------------------------x-X---------------------------------|

e|-------8-5-8/10B-----------------------------------------------------------|
B|---8B-----------------------------------6---------------------------------|
G|-------------------7-----5-5-----------------------------------------------|
D|---------------------5h7-----7-5--7----------------------------------------|
A|---------------------------------------------------------------------------|
D|---------------------------------------------------------------------------|

guest
You may want to rate the tab now too:
select rating
Wanna post a correction for this tab? Suggest correction