Oops, an error
Loading. Please wait.

Land Of Some Other Order Tab

5,213 views 1 this week
1 commentread comment
1 2 3 4 5
excellent!
x 5
add to favorites
launch autoscroll
font size
0
reset
how to read this tab
guitar tuner
Tab Pro tools
  • play this tab
  • loop segment
  • change instrument
  • show fretboard
  • metronome
×
Best way to learn
"Land Of Some Other Order"
Autoscroll
slow
fast
+/-
esc
set tempo
stop
Contributor
Difficulty
novice
=============================================================================

-----------------------------------------------------------------------------
                             Land of Some Other Order - Earth
-----------------------------------------------------------------------------
Tabbed by: David
Email: thischarmingman13@gmail.com

Tuning: Standard

There are some overdubs, I believe.
Those will be under "Guitar 2".
All parts of the song are below, but no sequence is included.
If you have questions / request, you can send me an e-mail.

I would recommend adding a slight phaser / pan effect to replicate the sound.

Below repeats for about a minute and a half, then variations start to come in.

e|---------------------------------------------------------------------------|
B|---------------------------------------------------------------------------|
G|------------------------------------4--------------------------------------|
D|-------5------1--0-----5------9---0----------------------------------------|
A|-7--7------2--------3------7-----------5-\-3-------------------------------|
E|-0-------------------------0-----------------------------------------------|

1:30                                 Guitar 1
e|---------------------------------------------------------------------------|
B|---------------------------------------------------------------------------|
G|------------------------------4-----9------------------------------7h-9--7-|
D|-------5------1--0-----5---0---------------2--0-------0--------------------|
A|-7--7------2--------3------------7------3--------2--------------7----------|
E|-0--------------------------------------------------------------0----------|
                     Overdub (Heavier, booming sound)
e|---------------------------------------------------------------------------|
B|---------------------------------------------------------------------------|
G|---------------------------------------------------------------------------|
D|------------------------------------9--------------------------------------|
A|---------------------------------7-----------------------2~----------------|
E|---------------------------------0-----------------------------------------|
                                  Guitar 1
e|---------------------------------------------------------------------------|
B|---------------------------------------------------------------------------|
G|-------------------------------------4-------------------------------------|
D|-9--7----5--------9------2--0-----0----------------------------------------|
A|--------------7-------3--------2-------------------------------------------|
E|--------------0------------------------------------------------------------|

   Repeat below about 3 or 4 times
e|--------------------------------------------0------------------------------|
B|----------------------------------------0---0------------------------------|
G|----------------------------------------2---2------------------------------|
D|----------5-----------------------5-----1----------------------------------|
A|-7--5h-7----7--5---7--5--2----7-----2--------------------------------------|
E|-0--------------------------0----------------------------------------------|
    Then back to the starting riff (slightly modified)
e|----------------------------------------------------------------------------|
B|----------------------------------------------------------------------------|
G|-------------------------4------4-------------------------------------------|
D|------5-----1-0-----5--2------0---------------------------------------------|
A|-7--7----2-------3------------------5-\-3-----------------------------------|
E|-0--------------------------------------------------------------------------|
    Ending
e|---------------------------------------------------------------------------|
B|--------------0-----5------------------------------------------------------|
G|--------------2-----4------------------------------------------------------|
D|------2-0-----1-----2------------------------------------------------------|
A|-7--3-----2---2-----2------------------------------------------------------|
E|-0-------------------------------------------------------------------------|

| /  slide up
| \  slide down
| h  hammer-on
| p  pull-off
| ~  vibrato
| +  harmonic
| x  Mute note
=============================================================================
comments
print report bad tab
1 comment total.
0 reply
swave75 wrote on December 29 2010, 12:07 pm

Well done!!! A+++!!!

I want to post or [tab]
guest
You may want to rate the tab now too:
select rating
Please do not post tabs as comments. Select "correction" instead!