Oops, an error
Loading. Please wait.

September Bass Tab

version 1
version 1

Album

Whole song

Interactive

8,253 views 66 this week
no commentswrite comment
1 2 3 4 5
worth learning
x 1
add to favorites
launch autoscroll
font size
0
reset
guitar tuner
Tab Pro tools
  • play this tab
  • loop segment
  • change instrument
  • show fretboard
  • metronome
×
Best way to learn
"September"
Autoscroll
slow
fast
+/-
esc
set tempo
stop
Contributor
Difficulty
intermediate
Intro
G|----------------------|
D|-----17-19---17-19----|
A|-0-0-----0-0-----0-0--|
E|----------------------|
Verse
G|-------------------||----------------------||-------------------------|
D|-------------------||----------------------||---------------2-3-4-----|
A|-5-5-4-2-3-4-----0-||-5-5-4-2-3-4-------0-2||-5-5-5-4-2-3-4-------4-2-|
E|------------4-0-2--||-------------4-0-2----||-------------------------|

G|----------------------------|
D|-----5-7-----5-7-----5-7----|
E|-0-0-----0-0-----0-0----0-0-|
A|----------------------------|
Chorus
G|---------------------|
D|---4-2------2-4------|
A|-2----2-3-4----2-2-0-|
E|---------------------|

G|-----------------------------|
D|-----5-7-----5-7-----5-7-----|
A|-0-0-----0-0-----0-0-----0-0-|
E|-----------------------------|
(In the chorus, build on this way, but then modify to your liking).
comments
We did not receive enough feedback on this tab! Please rate:
print report bad tab
1 2 3 4 5
I want to post or [tab]
guest
You may want to rate the tab now too:
select rating
Please do not post tabs as comments. Select "correction" instead!