Oops, an error
Loading. Please wait.

Rebuild tab

64 views 1 this week
no commentswrite comment
1 2 3 4 5
3 more votes to show rating
add to favorites
×
Save as Personal and add changes to this tab that will be seen only by you. Learn more ›
×
You can save this tab as Personal to edit and correct it or add notes. All changes will be seen only by you. Learn more »
launch autoscroll
font size
0
reset
how to read this tab
guitar tuner
edit
Autoscroll
slow
fast
+/-
esc
set tempo
stop
-------------------------------------------------------------------------------
                             REBUILD - Earthborn Kings
-------------------------------------------------------------------------------

Tuning: Drop C (C,G,C,F,A,D)

INTRO: 0:00 - Guitar 1

d|---------------------------------------------------------------------------------------|
A|---------------------------------------------------------------------------------------|
F|---------------------------------------------------------------------------------------|
C|--------------------------------5--3--------------------------------5--3-----1------3--|
G|--------------------------------5--3--------------------------------5--3-----1------3--|
C|--555-555---555-555---555-555---5--3--555-555---555-555---555-555---5--3--1111---3333--|
    ... ...   ... ...   ... ...         ... ...   ... ...   ... ...         ...    ...

0:00 - Guitar 2

d|-----------------------------------------------------------------------|
A|-----------------------------------------------------------------------|
F|-------------------------------------------------------------7---------|
C|----------8-7-5-----------8-7-5-----------8-7-5------8---7-------7h8---|
G|----------------8---------------8---------------8----------------------|
C|--555-555---------555-555---------555-555----------5---5---5---5-------| X2
    ... ...         ... ...         ... ...          .   .   .   .

d|---------------------------------------------------|
A|---------------------------------------------------|
F|----------------------2-3--------------------5-7---|
C|-----1-----5-3-----3-5-------3---8-7-----7-8-------|
G|-----1---------3-5-----------3-------7-8-----------|
C|--1111--------------------3333---------------------|
    ...                     ...

0:13 - Guitar 2 repeats the intro riff, whilst Guitar 1 plays the harmony:

d|---------------------------------------------------------------------------|
A|--------------------------------------------------------------6------------|
F|-----------7-5-------------7-5-------------7-5--------7---5----------------|
C|---------------8-7-------------8-7-------------8-7----------------7h8------|
G|---------------------------------------------------------------------------|
C|--555-555----------555-555---------555-555----------5---5---5---5----------| X2
    ... ...          ... ...         ... ...          .   .   .   .

d|--------------------------------------------------|
A|--------------------1-3--------------------6-8----|
F|--------3-2-----2-3------------5-3-----5-7--------|
C|-----1------3-5-------------3------3-5------------|
G|-----1----------------------3---------------------|
C|--1111-------------------3333---------------------|
    ...                    ...

VERSE RIFF: 0:27 - Both guitars play the same part, except for the runs at the end which are harmonised

Guitar 2
                                                                                  Guitar 1's run
d|--------------------------------------------------------------------------|--------------|
A|--------------------------------------------------------------------------|--------------|
F|-------------------------------------------------------------------7h8h10-|--------3h5h7-|
C|------8-------8-------8-------7-------8-------8-------8-----7h8h10--------|--3h5h7-------|
G|--------------------------------------------------------------------------|--------------|
C|--5-5---5-5-5---5-5-5---5-5-5---5-5-5---5-5-5---5-5-5---5-----------------|--------------|
    . . . . . . . . . . . . . . . . . . . . . . . . . . . . 

Guitar 2 (continued, guitar 1 plays the same again, except for the harmony lick at the end)

d|--------------------------------------------------------------------------|--------------|
A|--------------------------------------------------------------------------|--------------|
F|--------------------------------------------------------------------------|--------------|
C|------3-------3-------3-------3-------5-------5-------5----7h8p7----------|--3h5p3-------|
G|-----------------------------------------------------------------10p8-----|--------6p5---|
C|--1-1---1-1-1---1-1-1---1-1-1---1-3-3---3-3-3---3-3-3---3-----------------|--------------|
    . . . . . . . . . . . . . . . . . . . . . . . . . . . .

0:36 - Both guitars

d|---------------------------------------------------------------------------------------------|
A|---------------------------------------------------------------------------------------------|
F|---------------------------------------------------------------------------------------------|
C|--8-----8-----8-----7-----8-----8-----8-----12--3-----3-----3-----1-----5-----5-----5-----3--|
G|--5-----5-----5-----5-----5-----5-----5-----8---1-----1-----1-----1-----3-----3-----3-----3--|
C|--5-55555-55555-55555-55555-55555-55555-55558---1-11111-11111-11111-11113-33333-33333-33333--|
      ....  ....  ....  ....  ....  ....  ....      ....  ....  ....  ....  ....  ....  ....

d|--------------------------------------------------------------------------------------------------|
A|--------------------------------------------------------------------------------------------------|
F|--------------------------------------------------------------------------------------------------|
C|--8-----8-----8-----7-----8-----8-----5-8-7-5-3-5-0-----0-----0-----0-----1-----1-----4-----------|
G|--5-----5-----5-----5-----5-----5-----5-8-7-5-3-5-0-----0-----0-----0-----1-----1-----4-4-4-4-4-4-|
C|--5-55555-55555-55555-55555-55555-55555-8-7-5-3-5-0-00000-00000-00000-00001-11111-11114-4-4-4-4-4-|
      ....  ....  ....  ....  ....  ....  . . . . . . ....  ....  ....  ....  ....  ..... . . . . .

CHORUS: 0:55 - Guitar 1 chords (listen for rhythm & timing)

d|----------------------------------------------------------|
A|----------------------------------------------------------|
F|----------------------------------------------------------|
C|--5----3----0--1----0--10---5----0--1----0--10----5----0--|
G|--5----3----0--1----0--8----3----0--1----0--8-----3----0--|
C|--5----3----0--1----0--8----3----0--1----0--8-----3----0--|

Guitar 2 - sweep picking, (play the whole section 3 times)

d|----------------10h13p10h13t17p13p10----------------------------10h13p10h13t17p13p10------------|
A|--------------11---------------------11----------------------11----------------------11---------|
F|-----------12---------------------------12----------------12----------------------------12------|
C|--------12---------------------------------12----------12----------------------------------12---|
G|--10h13---------------------------------------13p10h13---------------------------------------13-|
C|------------------------------------------------------------------------------------------------|

Guitar 2 (continued)

d|--17p13----------------------------13h17p13--------13p10--------------------------10h13p10-------|
A|--------15----------------------15----------15-----------11--------------------11----------11----|
F|-----------14----------------14----------------14-----------10---------------12---------------10-|
C|--------------15----------15-----------------------------------12----------12--------------------|
G|-----------------17p13h17-----------------------------------------13p10h13-----------------------|
C|-------------------------------------------------------------------------------------------------|

1:24 - repeat verse riff

1:34 - Both guitars

d|---------------------------------------------------------------------------------------------|
A|---------------------------------------------------------------------------------------------|
F|---------------------------------------------------------------------------------------------|
C|--8-----8-----8-----7-----8-----8-----8-----12--3-----3-----3-----1-----5-----5-----5-----3--|
G|--5-----5-----5-----5-----5-----5-----5-----8---1-----1-----1-----1-----3-----3-----3-----3--|
C|--5-55555-55555-55555-55555-55555-55555-55558---1-11111-11111-11111-11113-33333-33333-33333--|
      ....  ....  ....  ....  ....  ....  ....      ....  ....  ....  ....  ....  ....  ....

1:43 - Guitar 1 continues playing the above, whilst guitar 2 plays these chords (listen for timing):

                                               end harmony (tremolo picking)
d|----------------------------------------------|---------|
A|----------------------------------------------|---------|
F|----------------------------------------------|---------|
C|--12-12-12-12/15--12-12-12-12--10-10-10-10----|--10/12--|
G|--10-10-10-10/13--13-13-13-13--12-12-12-12----|---------|
C|----------------------------------------------|---------|

1:51 - Guitar 1's harmony (tremolo picking)

d|--------------|
A|--------------|
F|--------------|
C|--7777/8888---|
G|--------------|
C|--------------|

1:53 - Guitar 2 repeats the section above (chords and end harmony) whilst guitar 1 plays:

d|-------------------------------------------------------------------|
A|-------------------------------------------------------------------|
F|-------------------------------------------------------------------|
C|--5p0h7p0h8p0h7p0h5p0h7p0h8p0h7p0h5p0h7p0h8p0h7p0h12p0h8p0h7p0h8p0-|
G|-------------------------------------------------------------------|
C|-------------------------------------------------------------------|

d|------------------------------------------------------------------|
A|------------------------------------------------------------------|
F|------------------------------------------------------------------|
C|--1p0h3p0h5p0h1p0h3p0h5p0h3p0h5p0h7p0h5p0h3p0h5p0h7p0--7777/8888--|
G|------------------------------------------------------------------|
C|------------------------------------------------------------------| X2

2:12 - Guitar 1

d|-----------------------------------------------------------------------------------------|
A|-----------------------------------------------------------------------------------------|
F|-----------------------------------------------------------------------------------------|
C|------0h5h8-0h4h7-----0h5h8-0h4h7---------------0h5h8-0h4h7-----0h5h8-0h4h7--------------|
G|----------------------------------0h5h8-------------------------------------0h5h8-0h4h7--|
C|--000-------------000-------------------000-000-------------000--------------------------| X2

Guitar 2 (light palm muting on the chugs, so that it still rings out)

d|----------------------------------------------------------------------------|
A|----------------------------------------------------------------------------|
F|----------------------------------------------------------------------------|
C|--------------------------------1-4-3--------------------------------1-4-3--|
G|--------------------------------1-4-3--------------------------------1-4-3--|
C|--000-000----000-000-000-000----1-4-3--000-000----000-000-000-000----1-4-3--|

Guitar 2 (continued)

d|----------------------------------------------------------------------------|
A|----------------------------------------------------------------------------|
F|----------------------------------------------------------------------------|
C|--------------------------------1-4-3--------------------------------1-4-3--|
G|--------------------------------1-4-3--------------------------------1-4-3--|
C|--111-111----111-111-111-111----1-4-3--111-111----111-111-111-111----1-4-3--|
    ... ...    ... ... ... ...           ... ...    ... ... ... ...


REPEAT CHORUS

3:01 - Guitar 1

d|-------------------------------------------------------------------------|
A|-------------------------------------------------------------------------|
F|-------------------------------------------------------------------------|
C|-----------------------------------------------------------0--------12\--|
G|-----------------------------------------------------------0--------12\--|
C|--000-000----000-000-000-0----------000-000----000-000-000-0--------12\--|
    ... ...    ... ... ... .          ... ...    ... ... ...

3:01 - Guitar 2

d|-------------------------------------------------------------------------|
A|-------------------------------------------------------------------------|
F|-------------------------------------------------------------------------|
C|-------------------------0------------------------------------------12\--|
G|-------------------------0------------------------------------------12\--|
C|--000-000----000-000-000-0----------000-000----000-000-000-0--------12\--|
    ... ...    ... ... ...            ... ...    ... ... ... .

3:10 - both guitars

d|---------------------------------------------------------------------------|
A|---------------------------------------------------------------------------|
F|---------------------------------------------------------------------------|
C|----------------------------------------------------------------------12\--|
G|----------------------------------------------------------------------12\--|
C|--000-000----000-000-000-000--------000-000----000-000-000-000--------12\--|
    ... ...    ... ... ... ...        ... ...    ... ... ... ...

3:19 - both guitars

d|-----------------------------------------------------------|
A|-----------------------------------------------------------|
F|-----------------------------------------------------------|
C|-----------------------------------------------------------|
G|-----------------------------------------------------------|
C|--000-000-0-0-000-000-000-000-0-0-0-0-0-0-0-0-0-0-0-0-0-0--| X3

END ON:

d|------------------------------|
A|------------------------------|
F|------------------------------|
C|------------------------------|
G|------------------------------|
C|--000-000----000-000-000-000--|
    ... ...    ... ... ... ...




************************************

| /   slide up
| \   slide down
| h   hammer-on
| p   pull-off
| t   tap note
| ~   vibrato
| +   harmonic
| *   Pinch harmonic
| x   Mute note
| .   Palm mute
| b   Bend
| pb  Pre-bend
| br  Bend release
| pbr Pre-bend release
| brb Bend release bend

************************************
Suggest correction
Creating personal tab
Creating personal tab
You can edit any tab online and save it as your Personal.

You can edit, replace or remove any tab part or add personal notes – all changes will be seen only by you.

Personal tabs can be accessed anytime from any device, even offline.
Learn more »
Give kudos to tab author, rate the tab!
1 2 3 4 5
comments
print report bad tab
guest
You may want to rate the tab now too:
select rating
Wanna post a correction for this tab? Suggest correction