Oops, an error
Loading. Please wait.

Relentless tab

34 views 1 this week
no commentswrite comment
1 2 3 4 5
3 more votes to show rating
add to favorites
×
Save as Personal and add changes to this tab that will be seen only by you. Learn more ›
×
You can save this tab as Personal to edit and correct it or add notes. All changes will be seen only by you. Learn more »
launch autoscroll
font size
0
reset
how to read this tab
guitar tuner
edit
Autoscroll
slow
fast
+/-
esc
set tempo
stop
-------------------------------------------------------------------------------
                             RELENTLESS - Earthborn Kings
-------------------------------------------------------------------------------

Tuning: Drop C (C,G,C,F,A,D)

INTRO: 0:00 - Guitar 2

D|------------------------------------------------------------------------------|
A|------------------------------------------------------------------------------|
F|------7-------7-------7-------7--------11---------11---------11---------11----|
C|----5---5---5---5---5---5---5---5---12----12---12----12---12----12---12----12-|
G|--6-------6-------6-------6-------9----------9----------9----------9----------|
C|------------------------------------------------------------------------------|

D|---------------------------------------------------------------------------|
A|---------------------------------------------------------------------------|
F|--------12----------12----------12----------12----------12----------12-----|
C|-----12----12----12----12----12----12----12----12----12----12----12----12--|
G|--10----------10----------10----------10----------13----------12-----------|
C|---------------------------------------------------------------------------| X3

0:27 - Guitar 1 enters

D|-----------------------------------------------------------------------|
A|-----------------------------------------------------------------------|
F|-----------------------------------------------------------------------|
C|----5-----5---8p5---5-----5---8p5---5-----5---8p5---5-----5---8p5------|
G|--6---6-6---6-----6---6-6---6-----6---6-6---6-----6---6-6---6----------|
C|-----------------------------------------------------------------------|

D|-------------------------------------------------------------------|
A|-------------------------------------------------------------------|
F|-------------------------------------------------------------------|
C|----4-----4---7p4---4-----4---7p4---4-----4---7p4---4-----4---7p4--|
G|--5---5-5---5-----5---5-5---5-----5---5-5---5-----5---5-5---5------|
C|-------------------------------------------------------------------|

D|-----------------------------------------------------------------------|
A|-----------------------------------------------------------------------|
F|-----------------------------------------------------------------------|
C|----5-----5---8p5---5-----5---8p5---5-----5---8p5---5-----5---8p5------|
G|--6---6-6---6-----6---6-6---6-----6---6-6---6-----6---6-6---6----------|
C|-----------------------------------------------------------------------|

D|-----------------------------------------------------------------------|
A|-----------------------------------------------------------------------|
F|-----------------------------------------------------------------------|
C|----5-----5---8p5---5-----5---8p5---5-----5---8p5---5-----5---8p5------|
G|--6---6-6---6-----6---6-6---6-----6---6-6---6-----6---6-6---6----------|
C|-----------------------------------------------------------------------|

0:41 - Guitar 2 switches to strumming chords (listen for timing)

D|-----------------------------------------------------------------|
A|-----------------------------------------------------------------|
F|--77777777/1111111111111111-1212121212121212-12121212-12121212---|
C|--55555555/1212121212121212-1212121212121212-12121212-12121212---|
G|--66666666/9-9-9-9-9-9-9-9-/1010101010101010/13131313\12121212---|
C|-----------------------------------------------------------------|

1:09 - Guitar 1

D|------------------------------------------------------|
A|------------------------------------------------------|
F|------------------------------------------------------|
C|---------7h8p7-------------------7h8p7----------------|
G|--0h6h10-------10p8-------0h6h10-------10p8-----------|
C|--------------------0-----------------------00-00-00--|

1:09 - Guitar 2

D|-------------------------------------------------|
A|-------------------------------------------------|
F|-------------------------------------------------|
C|--------3h5p3----------------3h5p3---------------|
G|--0h3h6-------6p3------0h3h6-------6p3-----------|
C|------------------0--------------------00-00-00--|

1:24 - Guitar 2 continues the above riff, whilst guitar 1 plays:

D|-----------------------------------------------------------------------------------------------------|
A|-----------------------------------------------------------------------------------------------------|
F|-----------------------------------------------------------------------------------------------------|
C|-----------------------------------------------------12----------------------------------------------|
G|--10-10-10-10-10-10-10-10-10/13-13-13-13\12-12-12-12----10-10-10-10-10-10-10-10/13-13-13-13\6-6-6-6--|
C|-----------------------------------------------------------------------------------------------------|

1:30 - Guitar 1

D|---------------------------------------------------------------------------------------------------------|
A|---------------------------------------------------------------------------------------------------------|
F|---------------------------------------------------------------------------------------------------------|
C|--------7h8p7------1--------7h8p7------3--------7h8p7------5---------------------------------------------|
G|--0h6h10-----10p6--1--0h6h10-----10p6--3--0h6h10-----10p6--5--t17p13t17p13t17p13t17p13t15p12t15p12t15p12-|
C|-------------------1-------------------3-------------------5---------------------------------------------|

1:30 - Guitar 2

D|--------------------------------------------------------------------------------------------|
A|--------------------------------------------------------------------------------------------|
F|--------------------------------------------------------------------------------------------|
C|--t8p5t8p5t8p5t8p5t10p7t10p7t10p7t10p7t12p8t12p8t12p8t12p8t8p5t8p5t8p5t8p5t7p3t7p3t7p3t7p3--|
G|--------------------------------------------------------------------------------------------|
C|--------------------------------------------------------------------------------------------|

1:37 - Guitar 1

D|-----------------------------------------------------------------------------------------------|
A|-----------------------------------------------------------------------------------------------|
F|-----------------------------------------------------------------------------------------------|
C|--------7h8p7------1--------7h8p7------3--------7h8p7------5-----------------------------5--3--|
G|--0h6h10-----10p6--1--0h6h10-----10p6--3--0h6h10-----10p6--5--t17p13t17p13t17p13t17p13---5--3--|
C|-------------------1-------------------3-------------------5-----------------------------5--3--|

1:37 - Guitar 2

D|----------------------------------------------------------------------------------|
A|----------------------------------------------------------------------------------|
F|----------------------------------------------------------------------------------|
C|--t8p5t8p5t8p5t8p5t10p7t10p7t10p7t10p7t12p8t12p8t12p8t12p8t8p5t8p5t8p5t8p5--5--3--|
G|----------------------------------------------------------------------------5--3--|
C|----------------------------------------------------------------------------5--3--|

1:43 - Both guitars (repeat as needed)

D|---------------------------------------|
A|---------------------------------------|
F|---------------------------------------|
C|---------------------------------------|
G|---------------------------------------|
C|--00-0-00-00----00-0-00-00----00-0-00--|
    .. . .. ..    .. . .. ..    .. . ..

1:57 - Guitar 2 continues the breakdown rhythm whilst Guitar 1 plays:

D|---------------------------------------------------------------------------|
A|---------------------------------------------------------------------------|
F|---------------------------------------------------------------------------|
C|---------7h8p7-------------7h8p7-------------7h8p7-------------7h8p7-------|
G|--0h6h10-------10p6p0h6h10-------10p6p0h6h10-------10p6p0h6h10-------10p6--|
C|---------------------------------------------------------------------------| X2

D|-------------------------------------------------------------------------------------------------|
A|-------------------------------------------------------------------------------------------------|
F|-------------------------------------------------------------------------------------------------|
C|----------10h12p10---------------10h12p10---------------10h12p10---------------10h12p10----------|
G|--0h10h13----------13p10p0h10h13----------13p10p0h10h13----------13p10p0h10h13----------13p10p0--|
C|-------------------------------------------------------------------------------------------------|

D|---------------------------------------------------------|
A|---------------------------------------------------------|
F|----------------------------------------------------8\7--|
C|--------3h5p3-----------3h5p3-----------3h5p3-------x-x--|
G|--0h3h6-------6p3p0h3h6-------6p3p0h3h6-------6p3p0/6\5--|
C|---------------------------------------------------------|

CHORUS: 2:10 - Guitar 1

D|----------------------------------------------------|
A|----------------------------------------------------|
F|----------------------------------------------------|
C|--1-------1----7-------7----0-------1----0-------1--|
G|--1-------1----5-------5----0-------1----0-------1--|
C|--1--1-11-1----5--5-55-5----0--0-00-1----0--0-00-1--| X2
       . ..         . ..         . ..         . ..

2:10 - Guitar 2

D|--5-----5-----5-----5-----5----------------------------------------|
A|----6-----6-----6-----6-----6---6-6-----6-----6-----6-----6--------|
F|------3-----3-----3-----3-----3-----5-----5-----5-----5-----5---5--|
C|--------------------------------------3-----3-----3-----3-----3----|
G|-------------------------------------------------------------------|
C|-------------------------------------------------------------------|

Guitar 2 (continued)

D|--3-----3------3-----3-----3-------5-----5-----6-----6-----6---------|
A|----3-----3------3-----3-----3---3---3-----3-----3-----3-----3---3---|
F|------0-----0------0-----0-----0-------0-----0-----0-----0-----0-----|
C|---------------------------------------------------------------------|
G|---------------------------------------------------------------------|
C|---------------------------------------------------------------------| X2

2:37 - Guitar 1

D|----------------------------------------------------------------------------|
A|----------------------------------------------------------------------------|
F|----------------------------------------------------------------------------|
C|----------------------------------------------------------------------------|
G|----------------------------------------------------------------------------|
C|--11-1-11-11----11-1-11-11----11-1-11--44-4-44-44----44-4-44-44----44-4-44--|
    .. . .. ..    .. . .. ..    .. . ..  .. . .. ..    .. . .. ..    .. . ..

D|----------------------------------------------------------------------------|
A|----------------------------------------------------------------------------|
F|----------------------------------------------------------------------------|
C|----------------------------------------------------------------------------|
G|----------------------------------------------------------------------------|
C|--55-5-55-55----55-5-55-55----55-5-55--88-8-88-88----77-7-77-77----77-7-77--|
    .. . .. ..    .. . .. ..    .. . ..  .. . .. ..    .. . .. ..    .. . ..

2:37 - Guitar 2

D|------------------------------------------------------------------------------|
A|------------------------------------------------------------------------------|
F|------7-------7-------7-------7--------11---------11---------11---------11----|
C|----5---5---5---5---5---5---5---5---12----12---12----12---12----12---12----12-|
G|--6-------6-------6-------6-------9----------9----------9----------9----------|
C|------------------------------------------------------------------------------|

D|-------------------------------------------------------------------------------------------------|
A|-------------------------------------------------------------------------------------------------|
F|--------12----------12----------12----------12----------12----------12---------12---------12-----|
C|-----12----12----12----12----12----12----12----12----12----12----12----12---12---12----12----12--|
G|--10----------10----------10----------10----------13----------13----------12--------12-----------|
C|-------------------------------------------------------------------------------------------------|

2:50 - Guitar 1

D|--------------------------|
A|--------------------------|
F|--------------------------|
C|--1----3----5----8----7---|
G|--1----3----5----8----7---|
C|--1----3----5----8----7---|

2:50 - Guitar 2

D|-----------------------------------------------------------------------|
A|-----------------------------------------------------------------------|
F|------7-------7-------7-------7-------10------10-------10-------10-----|
C|----5---5---5---5---5---5---5---5---7---7---7----7---7----7---7----7---|
G|--6-------6-------6-------6-------8-------8--------8--------8----------|
C|-----------------------------------------------------------------------|

D|-----------------------------------------------------------------------------------------|
A|-----------------------------------------------------------------------------------------|
F|-------12--------12--------12--------12---------12----------12---------12---------12-----|
C|-----8----8----8----8----8----8----8----8----12----12----12----12---12---12----12----12--|
G|--10--------10--------10--------10--------13----------13----------12--------12-----------|
C|-----------------------------------------------------------------------------------------|

3:03 - Guitar 1

D|---------------------------------------------------------------------------------------------------------|
A|---------------------------------------------------------------------------------------------------------|
F|---------------------------------------------------------------------------------------------------------|
C|--------7h8p7------1--------7h8p7------3--------7h8p7------5---------------------------------------------|
G|--0h6h10-----10p6--1--0h6h10-----10p6--3--0h6h10-----10p6--5--t17p13t17p13t17p13t17p13t15p12t15p12t15p12-|
C|-------------------1-------------------3-------------------5---------------------------------------------|

3:03 - Guitar 2

D|--------------------------------------------------------------------------------------------|
A|--------------------------------------------------------------------------------------------|
F|--------------------------------------------------------------------------------------------|
C|--t8p5t8p5t8p5t8p5t10p7t10p7t10p7t10p7t12p8t12p8t12p8t12p8t8p5t8p5t8p5t8p5t7p3t7p3t7p3t7p3--|
G|--------------------------------------------------------------------------------------------|
C|--------------------------------------------------------------------------------------------|

3:10 - Guitar 1

D|-----------------------------------------------------------------------------------|
A|-----------------------------------------------------------------------------------|
F|-------------------------------------------------------------------7--5-----5--3---|
C|--------7h8p7------1--------7h8p7------3--------7h8p7------5-----------------------|
G|--0h6h10-----10p6--1--0h6h10-----10p6--3--0h6h10-----10p6--5-----------------------|
C|-------------------1-------------------3-------------------5----5--------3---------|

3:10 - Guitar 2

D|----------------------------------------------------------------------------------|
A|----------------------------------------------------------------------------------|
F|----------------------------------------------------------------------------------|
C|--t8p5t8p5t8p5t8p5t10p7t10p7t10p7t10p7t12p8t12p8t12p8t12p8--------8--7-----7--5---|
G|----------------------------------------------------------------------------------|
C|---------------------------------------------------------------5--------3---------|

3:16 - Guitar 1

D|---------------------------------------------------------------------------------------------------------|
A|---------------------------------------------------------------------------------------------------------|
F|---------------------------------------------------------------------------------------------------------|
C|--------7h8p7------1--------7h8p7------3--------7h8p7------5---------------------------------------------|
G|--0h6h10-----10p6--1--0h6h10-----10p6--3--0h6h10-----10p6--5--t17p13t17p13t17p13t17p13t15p12t15p12t15p12-|
C|-------------------1-------------------3-------------------5---------------------------------------------|

3:16 - Guitar 2

D|--------------------------------------------------------------------------------------------|
A|--------------------------------------------------------------------------------------------|
F|--------------------------------------------------------------------------------------------|
C|--t8p5t8p5t8p5t8p5t10p7t10p7t10p7t10p7t12p8t12p8t12p8t12p8t8p5t8p5t8p5t8p5t7p3t7p3t7p3t7p3--|
G|--------------------------------------------------------------------------------------------|
C|--------------------------------------------------------------------------------------------|

3:23 - Guitar 1

D|-----------------------------------------------------------------------------------------------|
A|-----------------------------------------------------------------------------------------------|
F|-----------------------------------------------------------------------------------------------|
C|--------7h8p7------1--------7h8p7------3--------7h8p7------5-----------------------------5--3--|
G|--0h6h10-----10p6--1--0h6h10-----10p6--3--0h6h10-----10p6--5--t17p13t17p13t17p13t17p13---5--3--|
C|-------------------1-------------------3-------------------5-----------------------------5--3--|

3:23 - Guitar 2

D|----------------------------------------------------------------------------------|
A|----------------------------------------------------------------------------------|
F|----------------------------------------------------------------------------------|
C|--t8p5t8p5t8p5t8p5t10p7t10p7t10p7t10p7t12p8t12p8t12p8t12p8t8p5t8p5t8p5t8p5--5--3--|
G|----------------------------------------------------------------------------5--3--|
C|----------------------------------------------------------------------------5--3--|

3:30 - REPEAT CHORUS

3:56 - Both guitars

D|----------------------------------------------------------------------------------------------------|
A|----------------------------------------------------------------------------------------------------|
F|----------------------------------------------------------------------------------------------------|
C|---5555555-7777777-8888888-5555555-7777777-8888888-5555555-7777777-8888888-5555555-7777777-8888888--|
G|---6666666-6666666-6666666-6666666-6666666-6666666-5555555-5555555-5555555-5555555-5555555-5555555--|
C|---------------------------------------------------5555555-5555555-5555555-5555555-5555555-5555555--|

4:09 - GUITAR 1 SOLO (Guitar 2 repeats the above chords)

D|----------------------------8-----------------------------------------------|
A|-----15-------------8-10-11---10b--8-8----8-8-10-11-10----8b--8-8-----------|
F|--12----12b----8-10------------------------------------10---------10/14\12--|
C|----------------------------------------------------------------------------|
G|----------------------------------------------------------------------------|
C|----------------------------------------------------------------------------|

Guitar 1 solo (continued)

D|----------------------------------------------------------------------------------------------------|
A|----------------------------------------------------------------------------------------------------|
F|--t15p12p10h12t14p12p10h12t15p12t15p12p10h12t17p12t17p12p10h12t15p12p10h12t14p12p10h12t15p12p10h12--|
C|----------------------------------------------------------------------------------------------------|
G|----------------------------------------------------------------------------------------------------|
C|----------------------------------------------------------------------------------------------------|

Guitar 1 solo (continued)

D|----------------------------------------------------------------------------------------------------|
A|----------------------------------------------------------------------------------------------------|
F|--t15p12t15p12p10h12t14p12t14p12p10h12t17p12t17p12p10h12t15p12t15p12p10h12t17p12p10h12t15p12p10h12--|
C|----------------------------------------------------------------------------------------------------|
G|----------------------------------------------------------------------------------------------------|
C|----------------------------------------------------------------------------------------------------|

4:23 - Guitar 1 chords (listen for timing)

D|--------------------------------------------|
A|------------8888--5555----------------------|
F|--88888888--7777--7777--55555555--77777777--|
C|--55555555--5666--5555--55555555--55555555--|
G|--66666666--6666--6666--88888888--88888888--|
C|--------------------------------------------|

4:23 - GUITAR 2 SOLO

D|------------------------------------------------------------------------|
A|------------------------------------------------------------------------|
F|--t11p6t10p6t8p6t10p6t13p6t11p6t10p6t11p6t10p6t8p6t10p6t13p6t11p6t10p6--|
C|------------------------------------------------------------------------|
G|------------------------------------------------------------------------|
C|------------------------------------------------------------------------|

D|------------------------------------------------------------------------|
A|------------------------------------------------------------------------|
F|--t11p3t10p3t8p3t10p3t13p3t11p3t10p3t11p3t10p3t8p3t10p3t13p3t11p3t10p3--|
C|------------------------------------------------------------------------|
G|------------------------------------------------------------------------|
C|------------------------------------------------------------------------|

4:29 - Guitar 2 solo (continued)

D|-----------------------------------|
A|-----------------------------------|
F|--10b11-8--------------------------|
C|-----------10-10/12\7--7/10\5------|
G|-------------------------------8---|
C|-----------------------------------|

D|--------------------------------------------------------------------------------------------------|
A|------------------------------------------------------------------------------------------8h10h11-|
F|----------------------------------------------------------7h8h10--7h8h10-8h10h12--8h10h12---------|
C|--------------------------7h8h10--7h8h10-8h10h12--8h10h12-----------------------------------------|
G|--6h8h10-8h10h12--8h10h12-------------------------------------------------------------------------|
C|--------------------------------------------------------------------------------------------------|

D|-----------------------------8h10h11--8h10h11-10h11h13--|
A|--8h10h11-10h11h13--10h11h13----------------------------|
F|--------------------------------------------------------|
C|--------------------------------------------------------|
G|--------------------------------------------------------|
C|--------------------------------------------------------|

4:42 - Guitar 2 solo (continued)

D|------------------13-11-10-11-10----10----------------------------------------10-------|
A|--13--13b15\10-------------------13----13-11-13-11-10-11-10----10----------------------|
F|------------------------------------------------------------12----12-10-10h12----12----|
C|---------------------------------------------------------------------------------------|
G|---------------------------------------------------------------------------------------|
C|---------------------------------------------------------------------------------------|

4:49 - Guitar 2 (repeat 2x)

D|----------------------------------------------------------------------------------------------------|
A|----------------------------------------------------------------------------------------------------|
F|----------------------------------------------------------------------------------------------------|
C|--t8p5t8p5t8p5t8p5t8p5t8p5t8p5t8p5t7p3t7p3t7p3t7p3t7p3t7p3t7p3t7p3t8p3t8p3t8p3t8p3t8p3t8p3t8p3t8p3--|
G|----------------------------------------------------------------------------------------------------|
C|----------------------------------------------------------------------------------------------------|

D|------------------------------------|
A|------------------------------------|
F|------------------------------------|
C|--t8p5t8p5t8p5t8p5t7p3t7p3t7p3t7p3--|
G|------------------------------------|
C|------------------------------------|

4:49 - Guitar 1 (repeat 4x)

D|-------------------------------------------------------------------------------------|
A|-------------------------------------------------------------------------------------|
F|-------------------------------------------------------------------------------------|
C|--t12p8t12p8t12p8t12p8t12p8t12p8t12p8t12p8-------------------------------------------|
G|-------------------------------------------t12p8t12p8t12p8t12p8t12p8t12p8t12p8t12p8--|
C|-------------------------------------------------------------------------------------|
                                                                                                END ON
D|--------------------------------------------------------------------------------------------|-------|
A|--------------------------------------------------------------------------------------------|---8---|
F|--------------------------------------------------------------------------------------------|---x---|
C|--------------------------------------------------t12p8t12p8t12p8t12p8t10p7t10p7t10p7t10p7--|---5---|
G|--t13p10t13p10t13p10t13p10t13p10t13p10t13p10t13p10------------------------------------------|-------|
C|--------------------------------------------------------------------------------------------|-------|

5:03 - Guitar 2 switches to high harmony

D|------------------------------------------------------------------------------------|
A|------------------------------------------------------------------------------------|
F|------------------------------------------t10p7t10p7t10p7t10p7t10p7t10p7t10p7t10p7--|
C|--t12p8t12p8t12p8t12p8t12p8t12p8t12p8t12p8------------------------------------------|
G|------------------------------------------------------------------------------------|
C|------------------------------------------------------------------------------------|
                                                                                               END ON
D|--------------------------------------------------------------------------------------------|------|
A|--------------------------------------------------------------------------------------------|---11-|
F|--t12p8t12p8t12p8t12p8t12p8t12p8t12p8t12p8t15p12t15p12t15p12t15p12t14p10t14p10t14p10t14p10--|---x--|
C|--------------------------------------------------------------------------------------------|---8--|
G|--------------------------------------------------------------------------------------------|------|
C|--------------------------------------------------------------------------------------------|------|


************************************

| /   slide up
| \   slide down
| h   hammer-on
| p   pull-off
| ~   vibrato
| +   harmonic
| *   Pinch harmonic
| x   Mute note
| .   Palm mute
| b   Bend
| pb  Pre-bend
| br  Bend release
| pbr Pre-bend release
| brb Bend release bend

************************************

            
            
Suggest correction
Creating personal tab
Creating personal tab
You can edit any tab online and save it as your Personal.

You can edit, replace or remove any tab part or add personal notes – all changes will be seen only by you.

Personal tabs can be accessed anytime from any device, even offline.
Learn more »
Give kudos to tab author, rate the tab!
1 2 3 4 5
comments
print report bad tab
guest
You may want to rate the tab now too:
select rating
Wanna post a correction for this tab? Suggest correction