Oops, an error
Loading. Please wait.

Slaves Of Man tab

37 views 1 this week
no commentswrite comment
1 2 3 4 5
3 more votes to show rating
add to favorites
×
Save as Personal and add changes to this tab that will be seen only by you. Learn more ›
×
You can save this tab as Personal to edit and correct it or add notes. All changes will be seen only by you. Learn more »
launch autoscroll
font size
0
reset
how to read this tab
guitar tuner
edit
Autoscroll
slow
fast
+/-
esc
set tempo
stop
-------------------------------------------------------------------------------
                             Slaves Of Man - Earthborn Kings
-------------------------------------------------------------------------------

Tuning: Drop C (C,G,C,F,A,D)

INTRO (0:00): Guitar 1

d|------------------------------------------------------------------|
A|----------------------------------14h15p14------------------------|
F|-------------------------------------------15p14-14h15p14---------|
C|----------------------------------------------------------16p15---|
G|------------------------------------------------------------------|
C|--00000000000000-5h8-00000000-------------------------------------|
    ..............     ........

d|-------------------------------------------------------|
A|-------------------------------------------------------|
F|-------------------------------------------------------|
C|-------------------------------------------------------|
G|-------------------------5---5---5------6---6---6------|
C|--00000000000000-5h8--00---0---0---0-44---4---4---4----| X2
    ..............      .. . . . . . . .. . . . . . .

INTRO (0:00): Guitar 2

d|---------------------------------------------------------------|
A|-------------------------------10h11p10------------------------|
F|----------------------------------------11p10-10h11p10---------|
C|-------------------------------------------------------12p11---|
G|---------------------------------------------------------------|
C|--00000000000000-5h8-00000000----------------------------------|
    ..............     ........

d|-----------------------------------------------------|
A|-----------------------------------------------------|
F|-----------------------------------------------------|
C|-----------------------------------------------------|
G|------------------------5---5---5------6---6---6-----|
C|--00000000000000-5h8-00---0---0---0-44---4---4---4---| X2
    ..............     .. . . . . . . .. . . . . . .

0:17: Guitar 1

d|-----------------------------------------------|
A|-----------------------------------------------|
F|-----------------------------------------------|
C|-----------------------------------------------|
G|-----5---5---5------6---6---6------6---6---6---|
C|--00---0---0---0-44---4---4---4-55---5---5---5-|
    .. . . . . . . .. . . . . . . .. . . . . . . 

d|---------------------------------------------------------|
A|---------------------------------------------------------|
F|---------------------------------------------------------|
C|---------------------------------------------------------|
G|-----5---5---5-------13---13---13------12---12---12------|
C|--55---5---5---5--88----8----8----8-88----8----8----8----| X2
    .. . . . . . .  .. .  . .  . .  . .. .  . .  . .  .

0:17: Guitar 2

d|-----------------------------------------------|
A|-----------------------------------------------|
F|-----------------------------------------------|
C|-----------------------------------------------|
G|-----5---5---5------6---6---6------6---6---6---|
C|--00---0---0---0-44---4---4---4-55---5---5---5-|
    .. . . . . . . .. . . . . . . .. . . . . . . 

d|----------------------------------------------------|
A|----------------------------------------------------|
F|----------------------------------------------------|
C|----------------------------------------------------|
G|-----5---5---5-------10---10---10------9---9---9----|
C|--55---5---5---5--88----8----8----8-88---8---8---8--| X2
    .. . . . . . .  .. .  . .  . .  . .. . . . . . .

0:31: Both guitars

d|-------------------------------------------------|
A|-------------------------------------------------|
F|-------------------------------------------------|
C|-------------------------------------------------|
G|-------------------------------------------------|
C|--0000--0000----000000----0000--0000----0000000--|

0:40: Guitar 1

d|--------------------------------------------------------------------------------------------|
A|-------14h15p14------------14h15p14------------14h15p14-------------------------------------|
F|----------------15p14---------------15p14---------------15p14-14h15p14----------------------|
C|-----------------------------------------------------------------------16p15-15h16p15-------|
G|--------------------------------------------------------------------------------------17p16-|
C|--0000----------------0000----------------0000----------------------------------------------|
    ....                ....                ....

d|-----------------------------------------------------------------------------14h15p14--------|
A|-------14h15p14------------14h15p14------------14h15p14-------------------------------15p14--|
F|----------------15p14---------------15p14---------------15p14-14h15p14-----------------------|
C|-----------------------------------------------------------------------16p15-----------------|
G|---------------------------------------------------------------------------------------------|
C|--0000----------------0000----------------0000-----------------------------------------------| X2
    ....                ....                ....

0:40: Guitar 2

d|-------------------------------------------------------------------------------------------|
A|-------10h11p10-----------10h11p10------------10h11p10-------------------------------------|
F|----------------11p10-------------11p10---------------11p10-10h11p10-----------------------|
C|---------------------------------------------------------------------12p11-11h12p11--------|
G|------------------------------------------------------------------------------------13p12--|
C|--0000----------------0000--------------0000-----------------------------------------------|
    ....                ....              ....

d|------------------------------------------------------------------------10h11p10--------|
A|-------10h11p10-----------10h11p10-----------10h11p10----------------------------11p10--|
F|---------------11p10--------------11p10---------------11p10-10h11p10--------------------|
C|--------------------------------------------------------------------12p11---------------|
G|----------------------------------------------------------------------------------------|
C|--0000----------------0000--------------0000--------------------------------------------| X2
    ....                ....              ....

0:56: Both guitars (play the first part twice through, the palm muted 0 is only played the 2nd time)
      The only difference between the 2 guitars here, is that the guitar 1 plays the pinch harmonic
      on the F string.

d|-------------------------------------------------------------------|-----|
A|-------------------------------------------------------------------|-----|
F|-------------------------------------------------------------------|-----|
C|----------------------------------------------------------5-8-7-4--|-----|
G|----------------------------------------------------------5-8-7-4--|-----|
C|--00000000000000-5h8-00000000-0-0--3--00000000000000-5h8--5-8-7-4--|--0--|
    ..............     ........   .  •  ..............                  .

CHORUS: 1:13: Guitar 1 chords (listen for timing) 
- the 2nd time round the chorus ends with stab notes on the last chord (again listen for timing)

d|-------------------------------------------------------------------------|
A|----------------------------10108-8--------------------------------------|
F|--7-7-7-7-7-7-7-7--77777777-7-7-7-7-10109-9------------------------9999--|
C|--8-8-8-8-8-8-8-8--77777777-7-7-7-7-7-7-7-7--7-7-7-7-7-7-7-7---77777777--|
G|--1010101010101010-88888888-7-7-7-7-7-7-7-7--7-7-7-7-7-7-7-7---77777777--|
C|---------------------------------------------1010101010101010--77777777--| X2

1:13: Guitar 2 (tremolo picking)

d|------------------------------------|
A|--10-8-11-10-8-15-17-18-17-15-10-8--|
F|------------------------------------|
C|------------------------------------|
G|------------------------------------|
C|------------------------------------| X2             

1:47: Breakdown pattern - both guitars (play throughout breakdown)

d|-----------------------------------|
A|-----------------------------------|
F|-----------------------------------|
C|--1----1----1-1----1------1---4-3--|
G|--0----0----0-0----0------0---0-0--|
C|--1-00-1-00-1-1-00-1-00-0-1-0-4-3--|
      ..   ..     ..   .. .   .  

2:20: Guitar 2 enters with this riff whilst guitar 1 continues breakdown rhythm.

d|----------------------------------------------------------------------------|
A|----------------------------------------------------------------------------|
F|-----------------------------------------7---7---6---6---10---10---9---9----|
C|------------5---------------5h8-----4h7----8---8---7---7----7----7---7---7--|
G|--------5h8---8p5-------5h8-----4h7-----------------------------------------|
C|--0-0-0-----------0-0-0-----------------------------------------------------| X3

2:36: Guitar 1s harmony with guitar 2

d|--------------------------------------------------|
A|--------------------------------------------------|
F|--10----10----9----9----14----14----12----12------|
C|-----12----12---12---12----12----12----12----12---|
G|--------------------------------------------------|
C|--------------------------------------------------|

2:38: Both guitars (repeat for length of breakdown)

d|-------------------------|
A|-------------------------|
F|-------------------------|
C|--0----------------------|
G|--0----------------------|
C|--0--0-00----00000-0-0---|
       . ..        . . . 

2:55: Guitar 2 (repeats twice before switching to clean and repeating again)

d|--0-------0------0----0-----0-----0-------------5---------------5---------|
A|----6-------6------6----6-----6-----6-----6-------6---6---6-------6---6---|
F|--------7------7----------7-----7-----------7-------7-------7-------7-----|
C|---------------------------------------8------8---------8-----8-----------|
G|--------------------------------------------------------------------------|
C|--------------------------------------------------------------------------|

REPEAT CHORUS X3
REPEAT BREAKDOWN

************************************

| /   slide up
| \   slide down
| h   hammer-on
| p   pull-off
| ~   vibrato
| +   harmonic
| •   Pinch harmonic
| x   Mute note
| .   Palm mute
| b   Bend
| pb  Pre-bend
| br  Bend release
| pbr Pre-bend release
| brb Bend release bend

************************************
Suggest correction
Creating personal tab
Creating personal tab
You can edit any tab online and save it as your Personal.

You can edit, replace or remove any tab part or add personal notes – all changes will be seen only by you.

Personal tabs can be accessed anytime from any device, even offline.
Learn more »
Give kudos to tab author, rate the tab!
1 2 3 4 5
comments
print report bad tab
guest
You may want to rate the tab now too:
select rating
Wanna post a correction for this tab? Suggest correction