Oops, an error
Loading. Please wait.

Wasted World tab

34 views 1 this week
no commentswrite comment
1 2 3 4 5
3 more votes to show rating
add to favorites
×
Save as Personal and add changes to this tab that will be seen only by you. Learn more ›
×
You can save this tab as Personal to edit and correct it or add notes. All changes will be seen only by you. Learn more »
launch autoscroll
font size
0
reset
how to read this tab
guitar tuner
edit
Autoscroll
slow
fast
+/-
esc
set tempo
stop
-------------------------------------------------------------------------------
                             Wasted World - Earthborn Kings
-------------------------------------------------------------------------------

Tuning: Drop C# (C#, G#, C#, F#, A#, d#)

0:00 - Guitar 1

d#|--------------------------------------------------------------------|
A#|--------------------------------------------------------------------|
F#|--------------------------------------------------------------------|
C#|-------------------7---5--------------------------------------------|
G#|--5-----5-----5------------8---7---5-----5-----7h8-----4-4-----5-5--|
C#|----0-0---0-0---0----0---0---0---0---0-0---0-0-----5-5-----7-7------|

d#|------------------------------------------------------------------------|
A#|------------------------------------------------------------------------|
F#|------------------------------------------------------------------------|
C#|------------------7---5-------------------------------------------------|
G#|--5-----5-----5-----------8---7---5-----5-----5---7-------7-------7-----|
C#|----0-0---0-0---0---0---0---0---0---8-8---8-8---8---10-10---10-10---10--|

0:00 - Guitar 2

d#|-----------------------------------------------------------------------|
A#|-----------------------------------------------------------------------|
F#|-----------------------------------------------------------------------|
C#|--0----------------------------------0---------------------------------|
G#|--0----------------------------------0---------------------------------|
C#|--0----------------------------------0---------------------------------|

0:08 - Guitar 1 repeats intro. Guitar 2 plays:

d#|------------------------------------------------------------------------|
A#|------------------------------------------------------------------------|
F#|------------------------------------------------------------------------|
C#|------------------10---8------------------------------------------------|
G#|--8-----8-----8------------12---10---8-----8-----10h12-----4-4-----5-5--|
C#|----0-0---0-0---0----0---0----0----0---0-0---0-0-------5-5-----7-7------|

d#|---------------------------------------------------------------------|
A#|---------------------------------------------------------------------|
F#|---------------------------------------------------------------------|
C#|------------------10---8---------------------------------------------|
G#|--8-----8-----8------------12---10---5-----5-----5---7----7----7-----|
C#|----0-0---0-0---0----0---0----0----0---8-8---8-8---8---10---10---10--|

0:33 - Extended riff (both guitars)

d#|-------------------------------------------------------------------------------------|
A#|-------------------------------------------------------------------------------------|
F#|-------------------------------------------------------------------------------------|
C#|-------------------------------------------------------------------------------------|
G#|--5-----5-----5---7-------7-------7----8-------8-------8----10-------10-------10-----|
C#|----8-8---8-8---8---10-10---10-10---10---12-12---12-12---12----14-14----14-14----14--|

0:37 - Guitar 1

d#|------------------------------------------------------------------------------------------|
A#|------------------------------------------------------------------------------------------|
F#|------------------------------------------------------------------------------------------|
C#|------------------------------------------------------------------------------------------|
G#|--12\--------8\-------------------------12\--------8\------------------------4-4-----5-5--|
C#|------00--0-----00--0--12\------0----0------00--0-----00--0--12\------0--5-5-----7-7------|

0:37 - Guitar 2

d#|---------------------------------------------------------------------------------------------|
A#|---------------------------------------------------------------------------------------------|
F#|---------------------------------------------------------------------------------------------|
C#|---------------------------------------------------------------------------------------------|
G#|--15\--------12\-------8\---------------15\-------12\--------8\--------------7-7--------8-8--|
C#|------00--0------00--0------0-----0---------00--0-----00--0--------0-----8-8------10-10------|

0:46 - Guitar 1

d#|----------------------------------------------------------------------------------|
A#|----------------------------------------------------------------------------------|
F#|---------------------------------------------------------------------------7\5/7--|
C#|---------------------------------------------------------------------------7\5/7--|
G#|--12\--------8\-------------------------12\--------8\----------------------5\3/5--|
C#|------00--0-----00--0--12\------0----0------00--0-----00--0--12\------0--0--------|

0:46 - Guitar 2

d#|-----------------------------------------------------------------------------------|
A#|-----------------------------------------------------------------------------------|
F#|----------------------------------------------------------------------------7\5/7--|
C#|----------------------------------------------------------------------------7\5/7--|
G#|--15\--------12\-------8\---------------15\-------12\--------8\-------------5\3/5--|
C#|------00--0------00--0------0-----0---------00--0-----00--0--------0-----0---------|

0:54 - Guitar 1 repeats intro riff. Guitar 2 plays these chords:

d#|--------------------------|
A#|--------------------------|
F#|--2----5----2----2----5---|
C#|--3----3----3----3----3---|
G#|--5----1----1----5----1---|
C#|--------------------------|

1:09 - Both guitars

d#|---------------------------------|
A#|---------------------------------|
F#|---------------------------------|
C#|---------------------------------|
G#|------5------7-------1------3----|
C#|--0-0-8--0-0-10--0-0-3--0-0-5----|

1:13 breakdown - Both guitars

d#|--------------------------------------------------|
A#|--------------------------------------------------|
F#|--------------------------------------------------|
C#|--------------------------------------------------|
G#|--------------------------------------------------|
C#|--0000--0000--0-0-0--0000--0000--0000--0--0000----|

1:28 - Guitar 2 continues breakdown rhythm. Guitar 1 plays:

d#|------------------------------|
A#|------------------------------|
F#|--8-----10----10--9------9----|
C#|--12-------12--------11-------|
G#|------------------------------|
C#|------------------------------|

1:35 - CHORUS - Guitar 2 chords.

d#|---------------------|
A#|---------------------|
F#|---------------------|
C#|--8----10--0----3----|
G#|--8----10--0----3----|
C#|--8----10--0----3----|

1:35 - CHORUS - Guitar 1

d#|----------------------------------------------------------------------|
A#|----------------------------------------------------------------------|
F#|--777/101010\999-12-12-12\1010/14-3-3-3-3-3-3-3-3-2-2-2-5-5-5-2-2-2---|
C#|--xxx-x-x-x--xxx-x--x--x--x-x--x--x-x-x-x-x-x-x-x-x-x-x-x-x-x-x-x-x---|
G#|--555/8-8-8-\777/10-10-10\8-8-/12-1-1-1-1-1-1-1-1-0-0-0-3-3-3-0-0-0---|
C#|----------------------------------------------------------------------|

2:00 - Guitar 1

d#|---------------------------------------------------------------------------|
A#|---------------------------------------------------------------------------|
F#|--7-7-7-7-7-7-7-7-7-7-7-7-7-7-7-7-7-7-7-7-7-7-7-7-7b-7b-7b-7b-7b-7b-7b-7b--|
C#|--x-x-x-x-x-x-x-x-x-x-x-x-x-x-x-x-x-x-x-x-x-x-x-x--x--x--x--x--x--x--x--x--|
G#|--5-5-5-5-5-5-5-5-5-5-5-5-5-5-5-5-5-5-5-5-5-5-5-5-5b-5b-5b-5b-5b-5b-5b-5b--|
C#|---------------------------------------------------------------------------|

2:00 - Guitar 2

d#|----------------------------------------------------------------------------|
A#|----------------------------------------------------------------------------|
F#|----------------------------------101010101010101010b10b10b10b10b10b10b10b--|
C#|----------------------------------x-x-x-x-x-x-x-x-x--x--x--x--x--x--x--x----|
G#|----------------------------------8-8-8-8-8-8-8-8-8b-8b-8b-8b-8b-8b-8b-8b---|
C#|--0-0-0-0-0-0-0-0-0-0-0-0-0-0-0-0-------------------------------------------|

2:06 - Guitar 1 (guitar 2 just plays stabs on the open string)

d#|---------------------------------------------------------------------|
A#|---------------------------------------------------------------------|
F#|---------------------------------------------------------------------|
C#|-----------------------------------------------------------7\5-------|
G#|--7h8p7---7h8p7p5h7p5---7h8p7p5h7p5p4hh5p4---7h8p7---7h8p7-----7p4---|
C#|--------0-------------0--------------------0-------0-----------------|

2:11 - Guitar 2 enters with harmony

d#|--------------------------------------------------------------------------------------|
A#|--------------------------------------------------------------------------------------|
F#|--------------------------------------------------------------------------------------|
C#|---------------------------------------------------------------------------10\8-------|
G#|--10h12p10---10h12p10p8h10p8---10h12p10p8h10p8p7h8p7---10h12p10---10h12p10------10p7--|
C#|-----------0-----------------0-----------------------0----------0---------------------|

(the holding note at the end of the riff is the last note played)

REPEAT CHORUS

3:15 - Guitar 1

d#|------------------------------------------------------------------|
A#|------------------------------------------------------------------|
F#|--9/1010101010101010-9-1010101010101010/14-14-14-14\9-9/12-12-12--|
C#|--x-x-x-x-x-x-x-x-x--x-x-x-x-x-x-x-x-x--x--x--x--x--x-x-x--x--x---|
G#|--7/8-8-8-8-8-8-8-8--7/8-8-8-8-8-8-8-8-/12-12-12-12\7-7/10-10-10--|
C#|------------------------------------------------------------------|

d#|------------------------------------------------------------|
A#|------------------------------------------------------------|
F#|--9-101010101010101010/12-12-12-12-12-12-12-12-9-9-9-9\7----|
C#|--x-x-x-x-x-x-x-x-x-x--x--x--x--x--x--x--x--x--x-x-x-x-x----|
G#|--7/8-8-8-8-8-8-8-8-8-/10-10-10-10-10-10-10-10\7-7-7-7\5----|
C#|------------------------------------------------------------|

3:15 - Guitar 2

d#|------------------------------------------------------|
A#|------------------------------------------------------|
F#|------------------------------------------------------|
C#|--8----7----5----3---2----8----7----5----3---2--------|
G#|--8----7----5----3---2----8----7----5----3---2--------|
C#|--8----7----5----3---2----8----7----5----3---2---0----|

3:30 - Guitar 1 (guitar 2 enters with the same riff)

d#|----------------------------------------------------------------------------------------------|
A#|----------------------------------------------------------------------------------------------|
F#|----------------------------------------------------------------------------------------------|
C#|--1-----------------------1-------------------------1-----------------1-----------------------|
G#|--1--2--1--0--3--2--1--0--1--2--1--0--3--2--1--0----1--0--3--2--1--0--1--2--1--0--3--2--1--0--|
C#|-----2--1--0--3--2--1--0-----2--1--0--3--2--1--0-------0--3--2--1--0-----2--1--0--3--2--1--0--|

************************************

| /   slide up
| \   slide down
| h   hammer-on
| p   pull-off
| ~   vibrato
| +   harmonic
| x   Mute note
| b   Bend
| pb  Pre-bend
| br  Bend release
| pbr Pre-bend release
| brb Bend release bend

************************************

            
            
Suggest correction
Creating personal tab
Creating personal tab
You can edit any tab online and save it as your Personal.

You can edit, replace or remove any tab part or add personal notes – all changes will be seen only by you.

Personal tabs can be accessed anytime from any device, even offline.
Learn more »
Give kudos to tab author, rate the tab!
1 2 3 4 5
comments
print report bad tab
guest
You may want to rate the tab now too:
select rating
Wanna post a correction for this tab? Suggest correction