Oops, an error
Loading. Please wait.

I Cant Love You Back Chords

version 1
version 1

Whole song

34,023 views 15 this week
2 commentsread comments
1 2 3 4 5
worth learning
x 4
add to favorites
launch autoscroll
font size
0
reset
transpose
0
reset
display chords
guitar tuner
Autoscroll
slow
fast
+/-
esc
set tempo
stop
Help us to improve Ultimate-Guitar.com Take our survey!
×
Author
Difficulty
Capo
novice
4th fret
"I Can't Love You Back"

Capo 4
e|-----------------------------------------------------|
B|-----------------------------------------------------|
G|-----------------------------------------------------|
D|-8--9--8-9---8--9--8-9-------8--9--8-9 --------------|
A|-----------------------9/7-6-----------6/7-9---------|
E|-----------------------------------------------------|

G
I can love you in the morning
                    C
I can love you all day
                                     G
I can love you even more when I get home

I can love you every second
                     C
to the ends of the earth
                                         G
Where needing you's the only thing that's on
                      Em
my broken one track mind


[Chorus]

G                  C
Girl, I love you crazy
             G                   D
It comes so easy, after all we had

I could love you with all my heart
G                     C
But the hardest part is
                       G
I just can't love you back


G
I could write a thousand letters
                        C
Call a hundred times a day
                                 G
Or try to drown my sorrow at the bar

I could go down to the church
                    C
Get on my knees and pray
                                                 G
But it still won't change the way things really are
                      Em
Won't bring you back again



[Chorus]


G                           C
I can love you for all I'm worth
G                   C
To the ends of the earth
G     D                    G
But I just can't love you back 




Great song. first tab btw
Suggest correction
comments
print report bad tab
2 comments total.
0 reply
the_cw 42 wrote on February 11 2010, 10:31 pm

just so people know in the intro the frets are the normal 8th fret not 8th after the capo.
just thought i would clear up any confusion

0 reply
the_cw 42 wrote on February 25 2010, 10:30 pm

e|-----------------------------------------------------|
B|-----------------------------------------------------|
G|-5--8--5-8---5--8--5-8-------------------------------|
D|-8--9--8-9---8--9--8-9-------8--9--8-9 --------------|
A|-----------------------9/7-6-----------6/7-9---------|
E|-----------------------------------------------------|

guest
You may want to rate the tab now too:
select rating
Please do not post tabs as comments. Select "correction" instead!