Oops, an error
Loading. Please wait.

Lakambini Ko Chords

370 views 45 this week
no commentswrite comment
1 2 3 4 5
2 more votes to show rating
add to favorites
launch autoscroll
font size
0
reset
transpose
0
reset
display chords
guitar tuner
Autoscroll
slow
fast
+/-
esc
set tempo
stop
Help us to improve Ultimate-Guitar.com Take our survey!
×
Author
Difficulty
Tuning
intermediate
D# G# C# F# A# D#
-------------------------------------------------------------------------------
                             Lakambini Ko - Ebe Dancel
-------------------------------------------------------------------------------
Interpreted by: Andrei Lean Karlo Blanco

Hi! This is my third tab and a variation of Lakambini (this is the acoustic version).
I'm a big fan of the band Sugarfree which carried until Ebe had gone solo. 
I've been obsessed by this song from Ebe's album Bawat Daan. Frustrated to find any chords online, I decided
to do it on my own. I'm not sure of actual fingering of chords he used but my interpretation is close to
what I hear. This is based on the album Bawat Daan - Lakambini Ko plus my memory and video recording
of Ebe's performance @ Dama the repeat concert @ the Music Museum.
You may opt to use the basic chords or use the tab chart I created together with the lyrics.

Tuning is drop D# but I named the chords as if playing standard so it will not confuse you.

Please rate!

Enjoy!


[Intro] Palm mute

    E       E             E       E
                         
d#|-0-------0--(0)--------0-------0--(0)--------------------------------------------------------|
a#|-0-------0-------------0-------0-------------------------------------------------------------|
f#|-1-------1-----(2)-(1)-1-------1-----(2)-(1)-------------------------------------------------|
c#|-2-------2-------------2-------2-------------------------------------------------------------|
g#|-2-------2-------------2-------2-------------------------------------------------------------|
d#|-0-------0-------------0-------0-------------------------------------------------------------|


[Verse 1] Palm mute

             E                F#m    C#m (var)      B (var)     E       F#m     C#m (var)  B (var)       

d#|----------0-----------------x------0-------------x-----------0--------x-------0---------x--------|
a#|----------0-----------------x-----(5)-----------(7)----------0--------x------(5)-------(7)-------|
f#|----------1-----------------2------2-------------4-----------1--------2-------2---------4--------|
c#|----------2-----------------2------2-------------4-----------2--------2-------2---------4--------|
g#|----------2-----------------x------4-------------6-----------2--------x-------4---------6--------|
d#|----------0-----------------2------x-------------x-----------0--------2-------x---------x--------|
    Kung ito na ang huli kong liham ayoko siyang masayang sa isang paalam, sa isang paalam

           E         F#m       C#m (var)   B (var)     E     F#m     C#m (var)B (var)       

d#|--------0----------x---------0----------x-----------0------x-------0-------x---------------------|
a#|--------0----------x--------(5)--------(7)----------0------x------(5)-----(7)--------------------|
f#|--------1----------2---------2----------4-----------1------2-------2-------4---------------------|
c#|--------2----------2---------2----------4-----------2------2-------2-------4---------------------|
g#|--------2----------x---------4----------6-----------2------x-------4-------6---------------------|
d#|--------0----------2---------x----------x-----------0------2-------x-------x---------------------|
    Dahil ako ay mabubuhay sa 'yong mga alaala. At sa puso mo, diwa ko'y titira



[Pre - Chorus] Strum

     A                        E          F#m                  C             B (var2)     

d#|--0------------------------0-----------0-------------------0-------------0----------------------|
a#|--0------------------------0-----------0-------------------1-------------0----------------------|
f#|--2------------------------1-----------2-------------------0-------------4----------------------|
c#|--2------------------------2-----------2-------------------2-------------4----------------------|
g#|--0------------------------2-----------x-------------------3-------------2----------------------|
d#|--x------------------------0-----------2-------------------x-------------x----------------------|
    'di mo na ako kailangan hanapin pa. Pikit ka lang sinta, ako ay nariyan na


[Chorus]

                   A    B                   E         C#m     A                 B             E         E   
  
d#|----------------0----0-------------------0----------0------0-----------------0-------------0---------0--|
a#|----------------0----0-------------------0----------5------0-----------------0-------------0---------0--|
f#|----------------2----4-------------------1----------6------2-----------------4-------------1---------1--|
c#|----------------2----4-------------------2----------6------2-----------------4-------------2---------2--|
g#|----------------0----2-------------------2----------4------0-----------------2-------------2---------2--|
d#|----------------x----x-------------------0----------x------x-----------------x-------------0---------0--|
    Sa buhay mang ito     o sa kabilang mundo,            hangga't may pag-asang dumadaloy sa akin at sayo


                 C#m (var)        B  (var)  E            C#m              F#m               B (var)     

d#|---------------0---------------x---------0-------------0----------------0----------------0--------------|
a#|--------------(5)-------------(7)--------0-------------5----------------0---------------(7)-------------|
f#|---------------2---------------4---------1-------------6----------------2----------------4--------------|
c#|---------------2---------------4---------2-------------6----------------2----------------4--------------|
g#|---------------4---------------6---------2-------------4----------------x----------------6--------------|
d#|---------------x---------------x---------0-------------x----------------2----------------x--------------|
    Hangga't pag-ibig ay panig sa atin, kumagat man ang dilim. Huwag mangamba dahil liwanag tayo ng isa't-

[Intro 2] Palm mute

      E       E       E       E

d#|---0-------0--(0)---------0-------0--(0)--------------------------------------------------------|
a#|---0-------0--------------0-------0-------------------------------------------------------------|
f#|---1-------1-----(2)-(1)--1-------1-----(2)-(1)-------------------------------------------------|
c#|---2-------2--------------2-------2-------------------------------------------------------------|
g#|---2-------2--------------2-------2-------------------------------------------------------------|
d#|---0-------0--------------0-------0-------------------------------------------------------------|
    isa

[Verse 2] Palm mute

      E        F#m C#m (var)       B (var)      E        F#m          C#m (var)  B (var)       

d#|---0---------x---0--------------x------------0---------x------------0---------x--------|
a#|---0---------x--(5)------------(7)-----------0---------x-----------(5)-------(7)-------|
f#|---1---------2---2--------------4------------1---------2------------2---------4--------|
c#|---2---------2---2--------------4------------2---------2------------2---------4--------|
g#|---2---------x---4--------------6------------2---------x------------4---------6--------|
d#|---0---------2---x--------------x------------0---------2------------x---------x--------|
    O lakambini ko, buhay ng buhay ko,  'san ka man patungo dalhin mo ako

      E            F#m               C#m (var)   B (var)   E          F#m           C#m (var)B (var)       

d#|---0-------------x-----------------0----------x---------0-----------x-------------0-------x--------|
a#|---0-------------x----------------(5)--------(7)--------0-----------x------------(5)-----(7)-------|
f#|---1-------------2-----------------2----------4---------1-----------2-------------2-------4--------|
c#|---2-------------2-----------------2----------4---------2-----------2-------------2-------4--------|
g#|---2-------------x-----------------4----------6---------2-----------x-------------4-------6--------|
d#|---0-------------2-----------------x----------x---------0-----------2-------------x-------x--------|
    Huwag ka nang matakot, mundo'y hayaan mong umikot. Darating din ang panahon ng hinahon


[Pre - Chorus] Strum

     A                        E (var)    F#m                  C             B (var2)     

d#|--0------------------------0-----------0-------------------0-------------0----------------------|
a#|--0------------------------0-----------0-------------------1-------------0----------------------|
f#|--2------------------------1-----------2-------------------0-------------4----------------------|
c#|--2------------------------2-----------2-------------------2-------------4----------------------|
g#|--0------------------------2-----------x-------------------3-------------2----------------------|
d#|--x------------------------0-----------2-------------------x-------------x----------------------|
    'di mo na ako kailangan hanapin pa. Pikit ka lang sinta, ako ay nariyan na


[Chorus]

                   A    B                   E         C#m     A                 B             E         E   
  
d#|----------------0----0-------------------0----------0------0-----------------0-------------0---------0--|
a#|----------------0----0-------------------0----------5------0-----------------0-------------0---------0--|
f#|----------------2----4-------------------1----------6------2-----------------4-------------1---------1--|
c#|----------------2----4-------------------2----------6------2-----------------4-------------2---------2--|
g#|----------------0----2-------------------2----------4------0-----------------2-------------2---------2--|
d#|----------------x----x-------------------0----------x------x-----------------x-------------0---------0--|
    Sa buhay mang ito     o sa kabilang mundo,            hangga't may pag-asang dumadaloy sa akin at sayo


                 C#m (var)        B  (var)  E            C#m              F#m               B (var)     

d#|---------------0---------------x---------0-------------0----------------0----------------0--------------|
a#|--------------(5)-------------(7)--------0-------------5----------------0---------------(7)-------------|
f#|---------------2---------------4---------1-------------6----------------2----------------4--------------|
c#|---------------2---------------4---------2-------------6----------------2----------------4--------------|
g#|---------------4---------------6---------2-------------4----------------x----------------6--------------|
d#|---------------x---------------x---------0-------------x----------------2----------------x--------------|
    Hangga't pag-ibig ay panig sa atin, kumagat man ang dilim. Huwag mangamba dahil liwanag tayo ng isa't-


[Bridge]

      D       Bm       F#m       C#m (var) G       C            B

d#|---2-------0---------0---------0--------3-------0------------0---------|
a#|---3-------3---------0--------(5)-------3-------1------------0---------|
f#|---2-------2---------2---------2--------0-------0------------4---------|
c#|---0-------0---------2---------2--------0-------2------------4---------|
g#|---x-------2---------x---------4--------2-------3------------2---------|
d#|---x-------x---------2---------x--------3-------x------------x---------|
    isa      huwoooh   huwooooh  huwooh   Liwanag, ika'y liwanag


[Chorus]

                   A    B                   E         C#m     A                 B             E         E   
  
d#|----------------0----0-------------------0----------0------0-----------------0-------------0---------0--|
a#|----------------0----0-------------------0----------5------0-----------------0-------------0---------0--|
f#|----------------2----4-------------------1----------6------2-----------------4-------------1---------1--|
c#|----------------2----4-------------------2----------6------2-----------------4-------------2---------2--|
g#|----------------0----2-------------------2----------4------0-----------------2-------------2---------2--|
d#|----------------x----x-------------------0----------x------x-----------------x-------------0---------0--|
    Sa buhay mang ito     o sa kabilang mundo,            hangga't may pag-asang dumadaloy sa akin at sayo


                 C#m (var)        B  (var)  E            C#m              F#m               B (var)     

d#|---------------0---------------x---------0-------------0----------------0----------------0--------------|
a#|--------------(5)-------------(7)--------0-------------5----------------0---------------(7)-------------|
f#|---------------2---------------4---------1-------------6----------------2----------------4--------------|
c#|---------------2---------------4---------2-------------6----------------2----------------4--------------|
g#|---------------4---------------6---------2-------------4----------------x----------------6--------------|
d#|---------------x---------------x---------0-------------x----------------2----------------x--------------|
    Hangga't pag-ibig ay panig sa atin, kumagat man ang dilim. Huwag mangamba dahil liwanag tayo ng isa't-



[Outro] Palm mute

      E       E       E       E

d#|---0-------0--(0)---------0-------0--(0)--------------------------------------------------------|
a#|---0-------0--------------0-------0-------------------------------------------------------------|
f#|---1-------1-----(2)-(1)--1-------1-----(2)-(1)-------------------------------------------------|
c#|---2-------2--------------2-------2-------------------------------------------------------------|
g#|---2-------2--------------2-------2-------------------------------------------------------------|
d#|---0-------0--------------0-------0-------------------------------------------------------------|
    isa




Suggest correction
Give kudos to tab author, rate the tab!
1 2 3 4 5
comments
print report bad tab
guest
You may want to rate the tab now too:
select rating
Wanna post a correction for this tab? Suggest correction