Oops, an error
Loading. Please wait.

All My Colours bass

1,391 views 1 this week
1 commentread comment
1 2 3 4 5
2 more votes to show rating
add to favorites
×
Save as Personal and add changes to this tab that will be seen only by you. Learn more ›
×
You can save this tab as Personal to edit and correct it or add notes. All changes will be seen only by you. Learn more »
launch autoscroll
font size
0
reset
guitar tuner
edit
Autoscroll
slow
fast
+/-
esc
set tempo
stop
Author
Difficulty
ALL MY COLOURS
Echo And The Bunnymen

Taken from the Warner album Heaven Up Here (1981/2003 Reissue)

Transcribed by: Damian Pamminger (TwitcheD_85@hotmail.com)

Standard tuning: E A D G

Fig. 1
|-10----9------10-----9-----10---14----12---9-----10---14---12----9--------------|
|----0----0-------0-----0------0----0-----0----0-----0-----0----0---0------------|
|--------------------------------------------------------------------------------|
|--------------------------------------------------------------------------------|
<-8x-><-8x-><-8x-><-7x->         <-7x->        <-7x->        <-7x->        <-6x--|

|-0-2----|
|------3-|
|--------|
|--------|

Fig. 2a
|--------------------------|
|--------------------------|
|-5------------3-----------|
|--------------------------|

Fig. 2b
|-------------------------2-----|
|-----------------------------3-|
|-5--------0---3----------------|
|-------------------------------|
Suggest correction
Creating personal tab
Creating personal tab
You can edit any tab online and save it as your Personal.

You can edit, replace or remove any tab part or add personal notes – all changes will be seen only by you.

Personal tabs can be accessed anytime from any device, even offline.
Learn more »
Give kudos to tab author, rate the tab!
1 2 3 4 5
comments
print report bad tab
1 comment total.
0 reply
TwitcheD_85 1,624 Jan 28, 2006 07:50 AM

If anyone gets confused over Fig. 1 (because the spacing on the bottom got screwy)
It should look like this:

|-10---10---10---10---10----10---10---10---9---9---9---9---9---
|----0----0----0----0-----0-----0----0----0---0---0---0---0---0-
|----------------------------------------------------------------
|----------------------------------------------------------------

|-9---9---9---REPEAT-10---eight-then-REPEAT-9---seven-10---
|---0---0---0-----------0-times---------------0-times----0-
|----------------------------------------------------------
|----------------------------------------------------------

|-14---14---14---14---14---14---14---12---9---9---9---9---
|----0----0----0----0----0-----0----0----0---0---0---0---0-
|-----------------------------------------------------------
|-----------------------------------------------------------

|-9---9---9---10---*14----------*-12---9---9---9---9---9---9---
|---0---0---0----0-*---0--------*----0---0---0---0---0---0---0-
|------------------*repeat-seven-*-------------------------------
|------------------*times--------*-------------------------------

|-0--2-----|
|--------3-|
|----------|
|----------|

guest
You may want to rate the tab now too:
select rating
Wanna post a correction for this tab? Suggest correction