Oops, an error
Loading. Please wait.

Back Of Love bass

version 2
version 2

Whole song

Interactive

301 views 1 this week
no commentswrite comment
1 2 3 4 5
3 more votes to show rating
add to favorites
×
Save as Personal and add changes to this tab that will be seen only by you. Learn more ›
×
You can save this tab as Personal to edit and correct it or add notes. All changes will be seen only by you. Learn more »
launch autoscroll
font size
0
reset
guitar tuner
backing track
0:00
0:00
edit
Autoscroll
slow
fast
+/-
esc
set tempo
stop
Author
Difficulty
ECHO AND THE BUNNYMEN - THE BACK OF LOVE

G----------------------------------|
D----------------------------------|
A-5-3---3-5-3---3-5-3---3-5-3---3--|
E-----5-------5-------5-------5----| X5

G----------------------------------|
D----------------------------------|
A-5-3---3-5-3---3-5-3---3-5-3------|
E-----5-------5-------5-------5-0--| x1

"And you say it's love, you mean the back of love"

G-7--7--7----------7--7--7-----------| let these notes ring
D---0--0--77--7--7---0--0--77--7--7--|
A------------0--0-------------0--0---|
E------------------------------------| X2

"We're taking advantage of, breaking the back of love"
G-------------|
D-------------|
A-5553-330----|
E-------------| X8

G----------------------------------|
D----------------------------------|
A-5-3---3-5-3---3-5-3---3-5-3---3--|
E-----5-------5-------5-------5----| X3

G----------------------------------|
D----------------------------------|
A-5-3---3-5-3---3-5-3---3-5-3------|
E-----5-------5-------5-------5-0--| x1

"What were you thinking of, when you dreamt that up"

G-7--7--7----------7--7--7-----------| let these notes ring
D---0--0--77--7--7---0--0--77--7--7--|
A------------0--0-------------0--0---|
E------------------------------------| X2

Damn your timing has to be good at this next part!

"Taking advantage ooooofffff, breaking the baaack of loooooove"

G-7(x16)/9(x16)/11(x8)/12(x8)/14(x14)--|   I hope this part makes sense :/
D--------------------------------------|   It's the easiest way without having
A--------------------------------------|   a humongous stave right across the page :p
E--------------------------------------| x2

G-------9(x8)-7(x8)--|
D-7(x16)-------------|
A--------------------|
E--------------------| x2

G-7(X16)/9(X16)\4(X32)--|
D-----------------------|
A-----------------------|
E-----------------------| X4

"We can tell our left from right..."
G----------------------------------|
D----------------------------------|
A-5-3---3-5-3---3-5-3---3-5-3---3--|
E-----5-------5-------5-------5----| X3

G----------------------------------|
D----------------------------------|
A-5-3---3-5-3---3-5-3---3-5-3------|
E-----5-------5-------5-------5-0--| x1

"And you say it's love, you mean the back of love"

G-7--7--7----------7--7--7-----------| let these notes ring
D---0--0--77--7--7---0--0--77--7--7--|
A------------0--0-------------0--0---|
E------------------------------------| X2

"Taking advantage ooooofffff, breaking the baaack of loooooove"

G-7(x16)/9(x16)/11(x8)/12(x8)/14(x14)--|
D--------------------------------------|
A--------------------------------------|
E--------------------------------------| x2

G-----------------------|
D-----------------------|
A-----------------------|
E-0-x0-x0---------------| X8 I think Les slaps these notes with his thumb, rather than 
picking them.


"We're taking advantage of, breaking the back of love"
G-------------|
D-------------|
A-5553-330----|
E-------------| X8

"Breaking, the baaaaack of looooove!"

G------------------|
D------------------|
A-3-3-3/777777775--|
E------------------| End on this.
Suggest correction
Creating personal tab
Creating personal tab
You can edit any tab online and save it as your Personal.

You can edit, replace or remove any tab part or add personal notes – all changes will be seen only by you.

Personal tabs can be accessed anytime from any device, even offline.
Learn more »
Give kudos to tab author, rate the tab!
1 2 3 4 5
comments
print report bad tab
guest
You may want to rate the tab now too:
select rating
Wanna post a correction for this tab? Suggest correction