Oops, an error
Loading. Please wait.

Killing Moon tab

version 1
version 1

Whole song

Interactive

146,804 views 174 this week
7 commentsread comments
1 2 3 4 5
x 96
add to favorites
×
Save as Personal and add changes to this tab that will be seen only by you. Learn more ›
×
You can save this tab as Personal to edit and correct it or add notes. All changes will be seen only by you. Learn more »
launch autoscroll
font size
0
reset
how to read this tab
guitar tuner
edit
Autoscroll
slow
fast
+/-
esc
set tempo
stop
Author
Unregistered
Tabbed by: Greg Joyce
Tuning: Normal

  Bm Bm/A G (2x)
e|------------7(h)9----|
B|---3-5/6-----------3-|
G|-4-------------------|
D|---------------------|
A|---------------------|
E|---------------------|

   Em               C
e|--x--         e|--1---| >
B|--x--         B|--1---| > B
G|--x--         G|------| >
D|--2--         D|--2---| }
A|--2--         A|--3---| } A
E|-----         E|--3---| }

Verse strumming rhythm 1-23, 123, 1-23, 123
When strumming C for 1-2 strum A, for 3, 123 strum B

[Verse]
Em
Under blue moon I saw you
C
So soon you'll take me
Em
Up in your arms to late to beg you
C
Or cancel it though I know it must be
Em
The killing time
C
Unwillingly mine

[Chorus]
G   Cm                  G
Fate, up against your will
Cm                      G
Through the thick and thin
Cm              G
He will wait until
Cm                   G  Cm
You give yourself to him

Em /// Em /// C /// C ///

[Verse]
Em
In starlit nights I saw you
C
So cruelly you kissed me
Em
Your lips a magic world
C
The sky all hung with jewels
Em
The killing moon
C
Will come too soon

[Chorus]
G   Cm                  G
Fate, up against your will
Cm                      G
Through the thick and thin
Cm              G
He will wait until
Cm                   G  Cm
You give yourself to him

[SOLO]
e|----------------------------------------------|
B|-3-0-0-3-0-5-0-7-0-8-10-8-7-5-0-5-0-5-0-5-0-5-|
G|----------------------------------------------|
D|----------------------------------------------|
A|----------------------------------------------|
E|----------------------------------------------|

e|------------------------------------------|
B|-3-0-0-3-0-5-0-7-0-8-10-8-7-8-0-8-0-8-0-8-|
G|------------------------------------------|
D|------------------------------------------|
A|------------------------------------------|
E|------------------------------------------|

e|------------------------------------------------|
B|-3-0-0-3-0-5-0-7-0-8-10-8-7-8/10-0-10-0-10-0-10-|
G|------------------------------------------------|
D|------------------------------------------------|
A|------------------------------------------------|
E|------------------------------------------------|

e|------------------------------------------|
B|-3-0-0-3-0-5-0-7-0-8-10-8-7-3-0-3-0-3-0-3-|
G|------------------------------------------|
D|------------------------------------------|
A|------------------------------------------|
E|------------------------------------------|

e|----------------------|
B|-3-0----------3-0-----|
G|----2-------------2---|
D|------2-------------2-|
A|----------------------|
E|----------------------|

[Verse]
Em
Under blue moon I saw you
C
So soon you'll take me
Em
Up in your arms to late to beg you
C
Or cancel it though I know it must be
Em
The killing time
C
Unwillingly mine

[Chorus]
G   Cm                  G
Fate, up against your will
Cm                      G
Through the thick and thin
Cm              G
He will wait until
Cm                   G  Cm
You give yourself to him


************************************

| x  Dead note
| /  Slide up

************************************

            
            
Suggest correction
Creating personal tab
Creating personal tab
You can edit any tab online and save it as your Personal.

You can edit, replace or remove any tab part or add personal notes – all changes will be seen only by you.

Personal tabs can be accessed anytime from any device, even offline.
Learn more »
comments
print report bad tab
7 comments total. Showing first comments.
+14 reply
lazyboat 60 Jul 08, 2006 01:40 AM

gd tab just intro i found that if u hammer on 7 from 5 on e string instead of from 7 to 9 sounds better

+3 reply
guymenton 10 Jul 17, 2007 07:40 AM

Yes lazy's right...that sounds better. but the rest of the tab is awesome!

0 reply
mrstephen 10 May 07, 2010 04:44 PM

Good tab, I also agree with lazyboat

guest
Wanna post a correction for this tab? Suggest correction