Oops, an error
Loading. Please wait.

Lips Like Sugar Chords

256 views 15 this week
3 commentsread comments
1 2 3 4 5
x 5
add to favorites
launch autoscroll
font size
0
reset
transpose
0
reset
simplify chords
display chords
guitar tuner
Autoscroll
slow
fast
+/-
esc
set tempo
stop
Help us to improve Ultimate-Guitar.com Take our survey!
×
Author
Difficulty
Video https://www.youtube.com/watch?v=9hGcJA8fXvU&feature=share
Echo and the Bunnymen - Lips Like Sugar
No Capo

Note: The chord sequence in every line is B B B7 B B B7   B7 E B
for easy reading i only wrote  B                       B7 E B  

[Chords]
   B     B7    E     Bsus4                                           
e|-7-----7-----7-------7---------------------------------|
B|-7-----7-----9-------7---------------------------------|
G|-8-----8-----9-------9---------------------------------|
D|-9-----7-----9-------9---------------------------------|
A|-9-----9-----7-------9---------------------------------|
E|-7-----7-----7-------7---------------------------------|



[Intro]
                                                      
e|-------------------------|-------------------------|
B|-------------------------|-------------------------|
G|-------------------------|-------------------------|
D|-----------4-------------|-----------4-------------|
A|-7-6-7-6-----7-6-7-6-----|-7-6-7-6-----7-6-7-6-----|
E|---------7-----------7-0-|---------7-----------7-0-|

B7

[Verse]  
  B                       B7 E B              
She floats like a swan
   B                  B7 E B                     
Grace on the water
 B               B7 E B                     
Lips like sugar
  B              B7 E B                       
Lips like sugar
  B                                   B7 E B  
Just when you think you've caught her
 B                          B7 E B       
She glides across the water
  B                       B7 E B             
She calls for you tonight
     B                   B7 E B            
To share this moonlight


[Chorus]
         Bsus4                              
You'll flow down her river
       B                                
She'll ask you and you'll give her
           A                            
Lips like sugar
       B                                
Sugar kisses
           A                                 
Lips like sugar
       B                                
Sugar kisses

e|-------------------------|-------------------------|
B|-------------------------|-------------------------|
G|-------------------------|-------------------------|
D|-----------4-------------|-----------4-------------|
A|-7-6-7-6-----7-6-7-6-----|-7-6-7-6-----7-6-7-6-----|
E|---------7-----------7-0-|---------7-----------7-0-|
  
[Verse]
    B                       B7 E B          
She knows what she knows
    B                       B7 E B          
I know what she's thinking
  B                       B7 E B                 
Sugar kisses  
  B                       B7 E B  
Sugar kisses
 B                             B7 E B      
Just when you think she's yours
  B                        B7 E B        
She's flown to other shores
 B                        B7 E B            
To laugh at how you break
B                       B7 E B                
And melt into this lake


[Chorus]
         Bsus4                              
You'll flow down her river
       B                                
She'll ask you and you'll give her
           A                           
Lips like sugar
       B                                
Sugar kisses
           A                            
Lips like sugar
       B                                
Sugar kisses

[Solo]
e|-----------------------------------------------------------------------------|
B|-----------------------------------------------------------------------------|
G|-8-9-11-8-9-11-8-9-11-8-9-11-8-9-11-8-9-8------------------------------------|
D|-------------------------------------------9--9--9--9--9--9--9--9-9-9-9-9-9--|
A|-----------------------------------------------------------------------------|
E|-----------------------------------------------------------------------------|

e|-----------------------------------------------------------------------------|
B|------------------------------------------10-10-10-10-10-10-10-10-9-9-7-7-9--|
G|-8-9-11-8-9-11-8-9-11-8-9-11-8-9-11-8-9-8------------------------------------|
D|-----------------------------------------------------------------------------|
A|-----------------------------------------------------------------------------|
E|-----------------------------------------------------------------------------|

e|----------------------------------------------7-----|
B|---7---7-8-7---------------------7---7-8-7----7-----|
G|-----8-------8---------------------8-------8--8-----|
D|-9---------------11-9-11-12-11-9--------------9-----|
A|---------------9------------------------------9-----|
E|----------------------------------------------7-----|

e|----------------------------------------------------|
B|----------------------------------------------------|
G|----------------------------------------------------|
D|-----------4------------------------4---------------|
A|-7-6-7-6-----7-6-7-6------7-6-7-6-----7-6-7-6-------|
E|---------7-----------7-0----------7-----------7-0---|

B 

[Verse]
 B                   B7 E B 
She'll be my mirror
 B                   B7 E B
Reflect what I am
B                    B7 E B 
A loser and a winner
  B                 B7 E B
The king of Siam
B                   B7 E B
And my Siamese twin
B                   B7 E B
Alone on the river
 B             B7 E B
Mirror kisses
 B             B7 E B 
Mirror kisses


[Outro]
           A
Lips like sugar
       B
Sugar kisses                                       
           A 
Lips like sugar
       B
Sugar kisses
           A 
Lips like sugar
       B
Sugar kisses
           A
Lips like sugar
       B
Sugar kisses
           A 
Lips like sugar
       B
Sugar kisses
           A
Lips like sugar
       B  
Sugar kisses
              
A   B
Suggest correction
comments
print report bad tab
3 comments total.
+2 reply
motoclangers 4,299 Oct 03, 2016 08:44 PM

Fantastic job my friend,love the solo.

0 reply
schoben 2,628 Oct 07, 2016 07:38 AM

and once again an amazing tab!

0 reply
guillermopeitto 4,805 Oct 07, 2016 04:09 PM

And one again, thanks Ben!

guest
You may want to rate the tab now too:
select rating
Wanna post a correction for this tab? Suggest correction