Oops, an error
Loading. Please wait.

Stormy Weather Tab

19 views 1 this week
no commentswrite comment
1 2 3 4 5
3 more votes to show rating
add to favorites
launch autoscroll
font size
0
reset
how to read this tab
guitar tuner
Autoscroll
slow
fast
+/-
esc
set tempo
stop
Help us to improve Ultimate-Guitar.com Take our survey!
×
Author
Difficulty
intermediate
About this tab version
This is the Album Version, longer than the single - tab and chords complete. Was this info helpful? Yes No
ECHO AND THE BUNNYMEN - STORMY WEATHER (ALBUM VERSION)

Riffs:

VERSE RIFF 1 IS PICKED CHORDS: D = XXX775 G = XXX770 

E--5-----5-----5---|---0-----0----------|-Repeat for   E--5-----5-----5-----|
B----7-----7-----7-|-----7-----7--------| D & G chords B----7-----7-----7---|
G------7-----7-----|-7-----7-----7------| then play:-  G------7-----7-----7-|
D------------------|--------------------| over Em-A    D--------------------|
A------------------|--------------------|              A--------------------|
E------------------|--------------------|              E--------------------|

VERSE RIFF 2
              Play x3   Then:
E---------------------|------------9------9-------|
B---7-------b---------|---9----------10-----10----|
G-----7---7-9-9-7-9---|-----9----9------9------9--|
D-7-----7-----------9-|-9-----9-------------------|
A---------------------|---------------------------|
E---------------------|---------------------------|

VERSE RIFF 3                OR:
E-------------|------------||--------------|-----------|-----------|
B-------------|------------||--------3-1-0-|-0-1-0-----|-8-7-8-7---|
G-------7-5-4-| 4-5-4------||---2----------|-------2-0-|---------2-|
D-0-7-0-------|-------7-5--||-0---0--------|-----------|-----------|
A-------------|------------||--------------|-----------|-----------|
E-------------|------------||--------------|-----------|-----------|

CHORUS/OUTRO-RIFF:
e|-----------------------|         |-----------------------|
B|-10-8-7-5-7-x3 10\5----| x2. OR: |-----------------------| x2.
G|-----------------------|         |-14-12-11-9-11-14\11---|
D|-----------------------|         |-----------------------|
A|-----------------------|         |-----------------------|
E|-----------------------|         |-----------------------|

-------------------------------------------------------------------
Chord Progression:

VERSE:      | D | G || x3 | Em | A ||: VERSE RIFF 1 + VERSE RIFF 2 ||: VERSE RIFF 3 |

PRE-CHORUS: | G | D || x3 | A | [NOTE: G & D chords played at 10th fret]

CHORUS:     | D | G | Em | A || x2 - | E | A | with CHORUS/OUTRO RIFF

--------------------------------------------------------------------
INTRO: IS VERSE RIFF 1

VERSE 1: 
D           G
Hope you're feeling better now
Hope you got my letter, how?
Is my stormy weather now?
        Em   A
Is it gonna change?

VERSE 2: VERSE RIFF 2

VERSE RIFF 2
              Play x3   Then:
E---------------------|------------9------9-------|
B---7-------b-b-------|---9----------10-----10----|
G-----7---7-9-9-7-9---|-----9----9------9------9--|
D-7-----7-----------9-|-9-----9-------------------|
A---------------------|---------------------------|
E---------------------|---------------------------|
D           G
Can I be like everyone?
Pretending that there's nothing wrong?
Remember when we walked upon
clouds that never rain?

PRE-CHORUS: 
      G = 10th fret     D = 10th Fret
And I need it more than love
And I love it more than life
                                     A = OPEN A CHORD
And I want those stars above to shine on this night

VERSE 3: VERSE RIFF 2
Baby, ever wondered why?
I could make you laugh and cry?
Eclipsing all your summer skies
Some things never change.

PRE-CHORUS:
      G                   D
And I need it more than love
And I love it more than life            A
And I want those stars above to shine on this night

CHORUS: - CHORUS RIFF HERE  [see above]
D            G                 Em         A
You want it? You got it, there's nothing chained down.
You need it? I'll steal it. Just put your name down.
E                 A
I'll put my name down.

SOLO: | D G A | (3x) | G | A |
e|------------------------------------|         
B|------------------------------------|
G|------------------------------------|
D|--777-777-5-4-0-2--||:--5-7-2-------|
A|------------------------------------|
E|------------------------------------|

VERSE 4:
 D            G -  SOME SOLO NOODLING
Hope you're feeling better now
Hope you got my letter, how?
Is my stormy weather now?
Is my stormy weather now?

VERSE 5:  VERSE RIFF 3
Can I be like everyone?
Pretending that there's nothing wrong?
Remember when we walked upon
Remember when we walked upon
Remember when we walked upon
Remember when we walked upon
Clouds that never rain?
But every cloud must drain

PRE-CHORUS: 
             E |---------------------------| 
             B |---------------------------| 
SINGLE NOTES:G |--12-11-|-12-11-|-12-11-2--|
             D |---------------------------| 
             A |---------------------------| 
             E |---------------------------|

      G                   D
And I need it more than love
And I love it more than life            A
And I want those stars above to shine on this night

CHORUS: - CHORUS RIFF HERE

D            G                 Em         A
You want it? You got it, there's nothing chained down
You need it? I'll steal it. Just put your name down
Em                A
I'll put my name down.

You want it? You've got it. Now I know it's to you I'm bound
You need it? God speed it, Just put your name down.
I'll put my name down.

OUTRO:

CHORUS/OUTRO RIFF:
                   D         G
How's my stormy weather now?    } x6
How's my stormy weather?        }  


==================================================
Suggest correction
Give kudos to tab author, rate the tab!
1 2 3 4 5
comments
print report bad tab
guest
You may want to rate the tab now too:
select rating
Wanna post a correction for this tab? Suggest correction