Oops, an error
Loading. Please wait.

Villiers Terrace bass

version 1
version 1

Whole song

Interactive

458 views 1 this week
no commentswrite comment
1 2 3 4 5
3 more votes to show rating
add to favorites
×
Save as Personal and add changes to this tab that will be seen only by you. Learn more ›
×
You can save this tab as Personal to edit and correct it or add notes. All changes will be seen only by you. Learn more »
launch autoscroll
font size
0
reset
guitar tuner
backing track
0:00
0:00
edit
Autoscroll
slow
fast
+/-
esc
set tempo
stop
Band: Echo & The Bunnymen
Album: Crocodiles (1980)
Song: Villiers Terrace

Tabbed by Gregg Fancy
Submitted by Luke Fancy

Main: (4/4 Time)
   q e e q e e   q e e e e q
G|-------------|-------5---7-|
D|-------------|---------7---|
A|-7-7-7-7-7-7-|-3-3-3-------|
E|-------------|-------------|

Chorus: (7/4 Time)          (6/4 Time)           (7/4 Time)       (3/4 Time)
   q e q e q e q e e e   q e q e q e q e q   q e q e q e q e e e   q e q e
G|-----7-7-9-9-9-9-9-9-|-----7-7---9---9---|-----7-7-9-7-9-9-9-9-|-----7-7-|
D|-7-7-----------------|-7-7---------------|-7-7-----------------|-7-7-----|
A|---------------------|---------7---7---7-|---------------------|---------|
E|---------------------|-------------------|---------------------|---------|

Bridge: (3/4 Time)
   q e q e q
G|---9---9---|
D|-----------|
A|-7---7---7-|
E|-----------|

Outro: (4/4 Time)
   q e e s s s e E
G|-----------------|
D|---7-9-7-7-7-9---|
A|-7---------------|
E|---------------7-|

Drum Roll: (4/4 Time)
   e e e e e e e e   e e e e e e e e   w
G|-----------------|-----------------|---|
D|-----------------|-----------------|---|
A|-7-7-7-7-7-7-7-7-|-7-7-7-7-7-7-7-7-|---|
E|-----------------|-----------------|-0-|

Main
Chorus
Main
Chorus
Bridge
Main
Chorus
Outro
Drum Roll

W = dotted whole note
w = whole note
H = dotted half note
h = half note
Q = dotted quarter note
q = quarter note
E = dotted 8th note
e = 8th note
S = Dotted 16th note
s = 16th note

            
            
Suggest correction
Creating personal tab
Creating personal tab
You can edit any tab online and save it as your Personal.

You can edit, replace or remove any tab part or add personal notes – all changes will be seen only by you.

Personal tabs can be accessed anytime from any device, even offline.
Learn more »
Give kudos to tab author, rate the tab!
1 2 3 4 5
comments
print report bad tab
guest
You may want to rate the tab now too:
select rating
Wanna post a correction for this tab? Suggest correction