Oops, an error
Loading. Please wait.

Bright tab

version 1
version 1

Whole song

Video

4,147 views 6 this week
1 commentread comment
1 2 3 4 5
x 4
add to favorites
×
Save as Personal and add changes to this tab that will be seen only by you. Learn more ›
×
You can save this tab as Personal to edit and correct it or add notes. All changes will be seen only by you. Learn more »
launch autoscroll
font size
0
reset
how to read this tab
guitar tuner
edit
Autoscroll
slow
fast
+/-
esc
set tempo
stop
--------------------------------------------------------------------------------------
                            Bright - Echosmith (Playable Vocals)
--------------------------------------------------------------------------------------

Tabbed by: Mark Donohue 
E-mail:mwdonohue97@gmail.com

Tuning:Standard

Hi everyone, 

Thanks again for viewing my tab! The tab is mostly matched to the vocals in the song. Enjoy! 

_______________________________________________________________________________________


e|---------------------------------------------------------------------| INTRO 
B|---------------------------------------------------------------------|
G|---3---4-6-4-6-3---4-6-4-6-3---4-6-4-6-3-----------------------------| 
D|---------------------------------------------------------------------|
A|---------------------------------------------------------------------|
E|---------------------------------------------------------------------|

e|---------------------------------------------------------------------| VERSE 1 
B|---7-7-7-7-2-2-----2---------7-7-7-7-2-2-----2-----------------------|
G|---------------3-3---3-1-----------------3-3---3---4-----------------| I think the universe is on my 
D|-------------------------4-------------------------------------------| side/Heaven and Earth have 
A|---------------------------------------------------------------------| finally aligned
E|---------------------------------------------------------------------|

e|---------------------------------------------------------------------|  
B|---9/11-7-7---2-11-7-7-6-6---2---0-2---------------------------------|
G|-------------------------------------3-------------------------------| Days are good/And that's the 
D|---------------------------------------------------------------------| way it should be 
A|---------------------------------------------------------------------|
E|---------------------------------------------------------------------|

e|---------------------------------------------------------------------|  
B|---7-7-7-7-2-2-----2---------7-7-7-7-2-2-----2-----------------------|
G|---------------3-3---3-1-----------------3-3---3---4-----------------| You sprinkle stardust on my 
D|-------------------------4-------------------------------------------| pillowcase/It's like a 
A|---------------------------------------------------------------------| moonbeam brushed across my 
E|---------------------------------------------------------------------| face 

e|---------------------------------------------------------------------|  
B|---9/11-7-7---2-11-7-7-6-6---2---0-2---------------------------------| 
G|-------------------------------------3-------------------------------| Nights are good/And that's 
D|---------------------------------------------------------------------| the way it should be 
A|---------------------------------------------------------------------|
E|---------------------------------------------------------------------|

e|-------------9-6-----------------------9-6---------------------------| PRE-CHORUS 
B|---4-7-4-7-7-------7-6-4---4-7-4-7-7-7-------7-6-4---2---------------|
G|---------------------------------------------------------------------| You make me sing oh, la la la/
D|---------------------------------------------------------------------| You make a girl go oh oh oh/
A|---------------------------------------------------------------------| I'm in love, love 
E|---------------------------------------------------------------------|

e|-----------------------------------------------------6-4-2-----------| CHORUS
B|---0---4-7-7-2-4-2---4-----2---0---4-7-7-2-2-------------------------|
G|-----------------------3-3-------------------3-3---------------------| Did you see that shooting star
D|-------------------------------------------------4-4-----------------| tonight?/Were you dazzled by 
A|---------------------------------------------------------------------| the same constellation? 
E|---------------------------------------------------------------------| 

e|-----------------------6-4-------------------------------------------|  
B|---4-4-7-7-2-2-------2-------4-4-7-4-4-7-4-7-4-4-2-2-----------------|
G|---------------3-3---------------------------------------------------| Did you and Jupiter conspire 
D|---------------------------------------------------------------------| to get me?/I think you and 
A|---------------------------------------------------------------------| the Moon and Neptune got it 
E|---------------------------------------------------------------------| right 

e|---------------------------------------------------------------------|    
B|---2-2-2-9-7-7---6-4---7---6-4---------------------------------------|
G|---------------------------------------------------------------------| Cause now I'm shining bright,
D|---------------------------------------------------------------------| so bright/Bright,so bright 
A|---------------------------------------------------------------------|
E|---------------------------------------------------------------------|

e|---------------------------------------------------------------------| VERSE 2  
B|---2-7-7-7-2-2-----2---------7-7-7-7-2-2-----2-----------------------|
G|---------------3-3---3-1-----------------3-3---3---4-----------------| And I see colors in a 
D|-------------------------4-------------------------------------------| different way/You make what 
A|---------------------------------------------------------------------| doesn't matter fade to grey 
E|---------------------------------------------------------------------|

e|---------------------------------------------------------------------|   
B|---9/11-7-7---2-11-7-7-6-6---2---0-2---------------------------------|
G|-------------------------------------3-------------------------------| Life is good/And that's the 
D|---------------------------------------------------------------------| way it should be 
A|---------------------------------------------------------------------|
E|---------------------------------------------------------------------|

e|-------------9-6-----------------------9-6---------------------------| PRE-CHORUS 
B|---4-7-4-7-7-------7-6-4---4-7-4-7-7-7-------7-6-4---6 --------------|
G|---------------------------------------------------------------------| You make me sing oh, la la la/
D|---------------------------------------------------------------------| You make a girl go oh oh oh/
A|---------------------------------------------------------------------| I'm in love, love 
E|---------------------------------------------------------------------|

e|-----------------------------------------------------6-4-2-----------| CHORUS
B|---0---4-7-7-2-4-2---4-----2---0---4-7-7-2-2-------------------------|
G|-----------------------3-3-------------------3-3---------------------| Did you see that shooting star
D|-------------------------------------------------4-4-----------------| tonight?/Were you dazzled by 
A|---------------------------------------------------------------------| the same constellation?
E|---------------------------------------------------------------------|

e|-----------------------6-4-------------------------------------------|  
B|---4-4-7-7-2-2-------2-------4-4-7-4-4-7-4-7-4-4-2-2-----------------|
G|---------------3-3---------------------------------------------------| Did you and Jupiter conspire 
D|---------------------------------------------------------------------| to get me?/I think you and 
A|---------------------------------------------------------------------| the Moon and Neptune got it 
E|---------------------------------------------------------------------| right

e|---------------------------------------------------------------------|  
B|---2-2-2-9-7-7---9-4---2-4-6-7---7-9-4-2-1---------------------------|
G|-------------------------------------------3-1-----------------------| Cause now I'm shining bright,
D|---------------------------------------------------------------------| so bright/And I get lost in 
A|---------------------------------------------------------------------| your eyes 
E|---------------------------------------------------------------------|

e|-----------------------------------------------------6-4-2-----------| CHORUS 
B|---0---4-7-7-2-4-2---4-----2---0---4-7-7-2-2-------------------------|
G|-----------------------3-3-------------------3-3---------------------| Did you see that shooting star
D|-------------------------------------------------4-4-----------------| tonight?/Were you dazzled by 
A|---------------------------------------------------------------------| the same constellation?
E|---------------------------------------------------------------------|

e|-----------------------6-4-------------------------------------------| 
B|---4-4-7-7-2-2-------2-------4-4-7-4-4-7-4-7-4-4-2-2-----------------|
G|---------------3-3-------------------------------------1-------------| Did you and Jupiter conspire 
D|---------------------------------------------------------------------| to get me?/ I think you and 
A|---------------------------------------------------------------------| the Moon and Neptune got it 
E|---------------------------------------------------------------------| right

e|-------------------------------------6-6-6-6-6-2-2-------------------| 
B|---4-4-7-4-4-7-4-7-4-4-2-2-------2-2---------------4-4-2-------------|
G|-----------------------------1---------------------------------------| I think you and the Moon and  
D|---------------------------------------------------------------------| Neptune got it right/I think
A|---------------------------------------------------------------------| you and the Moon and Neptune  
E|---------------------------------------------------------------------| got it right

e|---------------------------------------------------------------------|  
B|---2-2-2-9-7-7---6-4---7---6-4---7---9-4---2-4-6-7---7-9-4-2---------|
G|-------------------------------------------------------------3-3-----| Cause now I'm shining bright, 
D|---------------------------------------------------------------------| so bright/Bright,so bright/
A|---------------------------------------------------------------------| Bright,so bright/And I get 
E|---------------------------------------------------------------------| lost in your eyes tonight 


************************************

| /   Slide Up
| -   No pause
| --- Pause 

************************************

            
            
Suggest correction
Creating personal tab
Creating personal tab
You can edit any tab online and save it as your Personal.

You can edit, replace or remove any tab part or add personal notes – all changes will be seen only by you.

Personal tabs can be accessed anytime from any device, even offline.
Learn more »
comments
print report bad tab
1 comment total.
0 reply
ravensfan2785 2,074 Jul 17, 2015 11:55 AM

Thank you everybody for helping this reach 1000 views!

guest
You may want to rate the tab now too:
select rating
Wanna post a correction for this tab? Suggest correction