Oops, an error
Loading. Please wait.

Bright Acoustic tab

version 2
version 2

Whole song

Video

1,222 views 12 this week
no commentswrite comment
1 2 3 4 5
2 more votes to show rating
add to favorites
×
Save as Personal and add changes to this tab that will be seen only by you. Learn more ›
×
You can save this tab as Personal to edit and correct it or add notes. All changes will be seen only by you. Learn more »
launch autoscroll
font size
0
reset
how to read this tab
guitar tuner
edit
Autoscroll
slow
fast
+/-
esc
set tempo
stop
----------------------------------------------------------------------------------------
                      Bright Acoustic - Echosmith (Playable Vocals)
----------------------------------------------------------------------------------------

Tabbed by: Mark Donohue 
E-mail: mwdonohue97@gmail.com

Tuning:Standard

If you have seen my other "Bright" tab, the acoustic version is very
similar, except most notes are played up one fret. Echosmith also plays
this version occasionally at live shows instead of the studio version.

________________________________________________________________________________________


e|---------------------------------------------------------------------| INTRO
B|---------------------------------------------------------------------|
G|---4---5-7-5-7-4---5-7-5-7-4---5-7-5-7-4-----------------------------| 
D|---------------------------------------------------------------------|
A|---------------------------------------------------------------------|
E|---------------------------------------------------------------------|

e|---------------------------------------------------------------------| VERSE 1 
B|---8-8-8-8-3-3-----3---------8-8-8-8-3-3-----3-----------------------|
G|---------------4-4---4-2-0----------------4-4---4---5----------------| I think the universe is on my 
D|---------------------------------------------------------------------| side/Heaven and Earth have 
A|---------------------------------------------------------------------| finally aligned
E|---------------------------------------------------------------------|

e|---------------------------------------------------------------------|  
B|---10/12-10-10---3-12-8-8-7-7---3-----3------------------------------|
G|------------------------------------5---4----------------------------| Days are good/And that's the 
D|---------------------------------------------------------------------| way it should be 
A|---------------------------------------------------------------------|
E|---------------------------------------------------------------------|

e|---------------------------------------------------------------------|  
B|---8-8-8-8-3-3-----------------8-8-8-8-3-3-----5---------------------|
G|---------------4-4-4h5p4-2-0---------------4-4---4---5---------------| You sprinkle stardust on my 
D|---------------------------------------------------------------------| pillowcase/It's like a 
A|---------------------------------------------------------------------| moonbeam brushed across my 
E|---------------------------------------------------------------------| face 

e|---------------------------------------------------------------------|  
B|---10/12-8-5h8---3-12-8-8-7-7---3-----3------------------------------| 
G|------------------------------------5---4----------------------------| Nights are good/And that's 
D|---------------------------------------------------------------------| the way it should be 
A|---------------------------------------------------------------------|
E|---------------------------------------------------------------------|

e|-------------10-7-----------------------10-7-------------------------| PRE-CHORUS
B|---5-8-5-8-8--------8-7-5---5-8-5-8-8-8--------8-7-5---3-------------|
G|---------------------------------------------------------------------| You make me sing oh, la la la/
D|---------------------------------------------------------------------| You make a girl go oh oh oh/
A|---------------------------------------------------------------------| I'm in love, love 
E|---------------------------------------------------------------------|

e|-----------------------------------------------------7-5-3-----------| CHORUS 
B|------5-8-8-3-5-3---5-----3-------5-8-8-3-3--------------------------|
G|---5------------------4-4-----5-------------4-4----------------------| Did you see that shooting star
D|-------------------------------------------------5-5-----------------| tonight?/Were you dazzled by 
A|---------------------------------------------------------------------| the same constellation? 
E|---------------------------------------------------------------------| 

e|-----------------------7-5-------------------------------------------|  
B|---5-5-8-8-3-3-------3-------5-5-8-5-5-8-5-8-5-5-3-3-----------------|
G|---------------4-4---------------------------------------------------| Did you and Jupiter conspire 
D|---------------------------------------------------------------------| to get me?/I think you and 
A|---------------------------------------------------------------------| the Moon and Neptune got it 
E|---------------------------------------------------------------------| right 

e|---------------------------------------------------------------------|   
B|---3-3-3-10-8-8---7-5---7-8---7~5---3-0------------------------------|
G|---------------------------------------------------------------------| Cause now I'm shining bright,
D|---------------------------------------------------------------------| so bright/Bright,so bright 
A|---------------------------------------------------------------------|
E|---------------------------------------------------------------------|

e|---------------------------------------------------------------------| VERSE 2  
B|---3-8-8-8-3-3-----------------8-8-8-3-3-----5-----------------------|
G|---------------4-4-4h5p4-2-0-------------4-4---4---5-----------------| And I see colors in a 
D|---------------------------------------------------------------------| different way/You make what 
A|---------------------------------------------------------------------| doesn't matter fade to grey 
E|---------------------------------------------------------------------|

e|---------------------------------------------------------------------|   
B|---10/12-10-10---3-12-8-8-7-7---3-----3------------------------------|
G|------------------------------------5---4----------------------------| Life is good/And that's the 
D|---------------------------------------------------------------------| way it should be 
A|---------------------------------------------------------------------|
E|---------------------------------------------------------------------|

e|-------------10-7-----------------------10-7-------------------------| PRE-CHORUS
B|---5-8-5-8-8--------8-7-5---5-8-5-8-8-8--------8-7-5---7/8\7---------|
G|---------------------------------------------------------------------| You make me sing oh, la la la/
D|---------------------------------------------------------------------| You make a girl go oh oh oh/
A|---------------------------------------------------------------------| I'm in love, love 
E|---------------------------------------------------------------------|

e|----------------------------------------------------7-5-3------------| CHORUS 
B|------5-8-8-3-5-3---5-----3-------5-8-8-3-3--------------------------|
G|---5------------------4-4-----5-------------4-4----------------------| Did you see that shooting star
D|-------------------------------------------------5-5-----------------| tonight?/Were you dazzled by 
A|---------------------------------------------------------------------| the same constellation? 
E|---------------------------------------------------------------------| 

e|-----------------------7-5-------------------------------------------|  
B|---5-5-8-8-3-3-------3-------5-5-8-5-5-8-5-8-5-5-3-3-----------------|
G|---------------4-4---------------------------------------------------| Did you and Jupiter conspire 
D|---------------------------------------------------------------------| to get me?/I think you and 
A|---------------------------------------------------------------------| the Moon and Neptune got it 
E|---------------------------------------------------------------------| right 

e|---------------------------------------------------------------------|  
B|---3-3-3-10-8-8---10-5---3-5-7-8---8-10-5-3-2------------------------|
G|----------------------------------------------4-2--------------------| Cause now I'm shining bright,
D|---------------------------------------------------------------------| so bright/And I get lost in 
A|---------------------------------------------------------------------| your eyes 
E|---------------------------------------------------------------------|

e|-----------------------------------------------------7-5-3-----------| CHORUS 
B|------5-8-8-3-5-3---5-----3-------5-8-8-3-3--------------------------|
G|---5------------------4-4-----5-------------4-4----------------------| Did you see that shooting star
D|-------------------------------------------------5-5-----------------| tonight?/Were you dazzled by 
A|---------------------------------------------------------------------| the same constellation? 
E|---------------------------------------------------------------------| 

e|-----------------------7-5-------------------------------------------|  
B|---5-5-8-8-3-3-------3-------5-5-8-5-5-8-5-8-5-5-3-3-----------------|
G|---------------4-4-------------------------------------2-------------| Did you and Jupiter conspire 
D|---------------------------------------------------------------------| to get me?/I think you and 
A|---------------------------------------------------------------------| the Moon and Neptune got it 
E|---------------------------------------------------------------------| right

e|-------------------------------------7-7-7-7-7-3-3-------------------|   
B|---5-5-8-5-5-8-5-8-5-5-3-3-------3-3---------------5-5-3-------------|
G|-----------------------------2---------------------------------------| I think you and the Moon and  
D|---------------------------------------------------------------------| Neptune got it right/I think
A|---------------------------------------------------------------------| you and the Moon and Neptune  
E|---------------------------------------------------------------------| got it right

e|---------------------------------------------------------------------|  
B|---3-3-3-10-8-8---7-5---7-8---7-5---7-8---9-4------------------------|
G|---------------------------------------------------------------------| Cause now I'm shining bright, 
D|---------------------------------------------------------------------| so bright/Bright,so bright/
A|---------------------------------------------------------------------| Bright,so bright 
E|---------------------------------------------------------------------| 

e|---------------------------------------------------------------------|  
B|---3-5-7-8---8-10-5H-3H----------------------------------------------|
G|--------------------------4h5p4--------------------------------------| And I get lost in your eyes,  
D|---------------------------------------------------------------------| tonight 
A|---------------------------------------------------------------------| 
E|---------------------------------------------------------------------|

************************************

| /   Slide up
| \   Slide down
| h   Hammer-on
| p   Pull-off
| ~   Vibrato
| H   Hold note 
| -   No pause 
| --- Pause 

************************************

            
            
Suggest correction
Creating personal tab
Creating personal tab
You can edit any tab online and save it as your Personal.

You can edit, replace or remove any tab part or add personal notes – all changes will be seen only by you.

Personal tabs can be accessed anytime from any device, even offline.
Learn more »
Give kudos to tab author, rate the tab!
1 2 3 4 5
comments
print report bad tab
guest
You may want to rate the tab now too:
select rating
Wanna post a correction for this tab? Suggest correction